  0
SECTION
  2
HEADER
  9
$ACADVER
  1
AC1009
  9
$DWGCODEPAGE
  3
undefined
  9
$INSBASE
 10
0.0
 20
0.0
 30
0.0
  9
$EXTMIN
 10
-6.194801320414399
 20
0.0120473541496722
 30
0.0
  9
$EXTMAX
 10
3715.204595372378
 20
3835.267568463069
 30
0.0
  9
$LIMMIN
 10
0.0
 20
0.0
  9
$LIMMAX
 10
12.0
 20
9.0
  9
$ORTHOMODE
 70
     0
  9
$REGENMODE
 70
     1
  9
$FILLMODE
 70
     1
  9
$QTEXTMODE
 70
     0
  9
$MIRRTEXT
 70
     1
  9
$DRAGMODE
 70
     2
  9
$LTSCALE
 40
1.0
  9
$OSMODE
 70
    37
  9
$ATTMODE
 70
     1
  9
$TEXTSIZE
 40
0.2
  9
$TRACEWID
 40
0.05
  9
$TEXTSTYLE
  7
STANDARD
  9
$CLAYER
  8
FISHER___PAYKEL
  9
$CELTYPE
  6
BYLAYER
  9
$CECOLOR
 62
   256
  9
$DIMSCALE
 40
1.0
  9
$DIMASZ
 40
0.18
  9
$DIMEXO
 40
0.0625
  9
$DIMDLI
 40
0.38
  9
$DIMRND
 40
0.0
  9
$DIMDLE
 40
0.0
  9
$DIMEXE
 40
0.18
  9
$DIMTP
 40
0.0
  9
$DIMTM
 40
0.0
  9
$DIMTXT
 40
0.18
  9
$DIMCEN
 40
0.09
  9
$DIMTSZ
 40
0.0
  9
$DIMTOL
 70
     0
  9
$DIMLIM
 70
     0
  9
$DIMTIH
 70
     1
  9
$DIMTOH
 70
     1
  9
$DIMSE1
 70
     0
  9
$DIMSE2
 70
     0
  9
$DIMTAD
 70
     0
  9
$DIMZIN
 70
     0
  9
$DIMBLK
  1

  9
$DIMASO
 70
     1
  9
$DIMSHO
 70
     1
  9
$DIMPOST
  1

  9
$DIMAPOST
  1

  9
$DIMALT
 70
     0
  9
$DIMALTD
 70
     2
  9
$DIMALTF
 40
25.4
  9
$DIMLFAC
 40
1.0
  9
$DIMTOFL
 70
     0
  9
$DIMTVP
 40
0.0
  9
$DIMTIX
 70
     0
  9
$DIMSOXD
 70
     0
  9
$DIMSAH
 70
     0
  9
$DIMBLK1
  1

  9
$DIMBLK2
  1

  9
$DIMSTYLE
  2
STANDARD_ACAD
  9
$DIMCLRD
 70
     0
  9
$DIMCLRE
 70
     0
  9
$DIMCLRT
 70
     0
  9
$DIMTFAC
 40
1.0
  9
$DIMGAP
 40
0.09
  9
$LUNITS
 70
     2
  9
$LUPREC
 70
     4
  9
$SKETCHINC
 40
0.1
  9
$FILLETRAD
 40
0.5
  9
$AUNITS
 70
     0
  9
$AUPREC
 70
     0
  9
$MENU
  1
.
  9
$ELEVATION
 40
0.0
  9
$PELEVATION
 40
0.0
  9
$THICKNESS
 40
0.0
  9
$LIMCHECK
 70
     0
  9
$CHAMFERA
 40
0.0
  9
$CHAMFERB
 40
0.0
  9
$SKPOLY
 70
     0
  9
$TDCREATE
 40
2458446.56974537
  9
$TDUPDATE
 40
2458446.569768519
  9
$TDINDWG
 40
0.0000000116
  9
$TDUSRTIMER
 40
0.0000000116
  9
$USRTIMER
 70
     1
  9
$ANGBASE
 50
0.0
  9
$ANGDIR
 70
     0
  9
$PDMODE
 70
     0
  9
$PDSIZE
 40
0.0
  9
$PLINEWID
 40
0.0
  9
$COORDS
 70
     1
  9
$SPLFRAME
 70
     0
  9
$SPLINETYPE
 70
     6
  9
$SPLINESEGS
 70
     8
  9
$ATTDIA
 70
     0
  9
$ATTREQ
 70
     1
  9
$HANDLING
 70
     1
  9
$HANDSEED
  5
CCF
  9
$SURFTAB1
 70
     6
  9
$SURFTAB2
 70
     6
  9
$SURFTYPE
 70
     6
  9
$SURFU
 70
     6
  9
$SURFV
 70
     6
  9
$UCSNAME
  2

  9
$UCSORG
 10
0.0
 20
0.0
 30
0.0
  9
$UCSXDIR
 10
1.0
 20
0.0
 30
0.0
  9
$UCSYDIR
 10
0.0
 20
1.0
 30
0.0
  9
$PUCSNAME
  2

  9
$PUCSORG
 10
0.0
 20
0.0
 30
0.0
  9
$PUCSXDIR
 10
1.0
 20
0.0
 30
0.0
  9
$PUCSYDIR
 10
0.0
 20
1.0
 30
0.0
  9
$USERI1
 70
     0
  9
$USERI2
 70
     0
  9
$USERI3
 70
     0
  9
$USERI4
 70
     0
  9
$USERI5
 70
     0
  9
$USERR1
 40
0.0
  9
$USERR2
 40
0.0
  9
$USERR3
 40
0.0
  9
$USERR4
 40
0.0
  9
$USERR5
 40
0.0
  9
$WORLDVIEW
 70
     1
  9
$SHADEDGE
 70
     3
  9
$SHADEDIF
 70
    70
  9
$TILEMODE
 70
     1
  9
$MAXACTVP
 70
    64
  9
$PLIMCHECK
 70
     0
  9
$PEXTMIN
 10
1.000000000000000E+20
 20
1.000000000000000E+20
 30
1.000000000000000E+20
  9
$PEXTMAX
 10
-1.000000000000000E+20
 20
-1.000000000000000E+20
 30
-1.000000000000000E+20
  9
$PLIMMIN
 10
0.0
 20
0.0
  9
$PLIMMAX
 10
12.0
 20
9.0
  9
$UNITMODE
 70
     0
  9
$VISRETAIN
 70
     1
  9
$PLINEGEN
 70
     0
  9
$PSLTSCALE
 70
     1
  0
ENDSEC
  0
SECTION
  2
TABLES
  0
TABLE
  2
VPORT
 70
     1
  0
VPORT
  2
*ACTIVE
 70
     0
 10
0.0
 20
0.0
 11
1.0
 21
1.0
 12
1854.504897025982
 22
1917.639807908609
 13
0.0
 23
0.0
 14
0.5
 24
0.5
 15
0.5
 25
0.5
 16
0.0
 26
0.0
 36
1.0
 17
0.0
 27
0.0
 37
0.0
 40
3911.960631531098
 41
0.9703132884394604
 42
50.0
 43
0.0
 44
0.0
 50
0.0
 51
0.0
 71
     0
 72
   100
 73
     1
 74
     3
 75
     0
 76
     0
 77
     0
 78
     0
  0
ENDTAB
  0
TABLE
  2
LTYPE
 70
     1
  0
LTYPE
  2
CONTINUOUS
 70
     0
  3
Solid line
 72
    65
 73
     0
 40
0.0
  0
ENDTAB
  0
TABLE
  2
LAYER
 70
     2
  0
LAYER
  2
0
 70
     0
 62
     7
  6
CONTINUOUS
  0
LAYER
  2
FISHER___PAYKEL
 70
     0
 62
     7
  6
CONTINUOUS
  0
ENDTAB
  0
TABLE
  2
STYLE
 70
     1
  0
STYLE
  2
STANDARD
 70
     0
 40
0.0
 41
1.0
 50
0.0
 71
     0
 42
0.2
  3
txt
  4

  0
ENDTAB
  0
TABLE
  2
VIEW
 70
     0
  0
ENDTAB
  0
TABLE
  2
UCS
 70
     0
  0
ENDTAB
  0
TABLE
  2
APPID
 70
     1
  0
APPID
  2
ACAD
 70
     0
  0
ENDTAB
  0
TABLE
  2
DIMSTYLE
 70
     1
  0
DIMSTYLE
  2
STANDARD_ACAD
 70
     0
  3

  4

  5

  6

  7

 40
1.0
 41
0.18
 42
0.0625
 43
0.38
 44
0.18
 45
0.0
 46
0.0
 47
0.0
 48
0.0
140
0.18
141
0.09
142
0.0
143
25.4
144
1.0
145
0.0
146
1.0
147
0.09
 71
     0
 72
     0
 73
     1
 74
     1
 75
     0
 76
     0
 77
     0
 78
     0
170
     0
171
     2
172
     0
173
     0
174
     0
175
     0
176
     0
177
     0
178
     0
  0
ENDTAB
  0
ENDSEC
  0
SECTION
  2
BLOCKS
  0
BLOCK
  8
0
  2
$MODEL_SPACE
 70
     0
 10
0.0
 20
0.0
 30
0.0
  3
$MODEL_SPACE
  1

  0
ENDBLK
  5
21
  8
0
  0
BLOCK
 67
     1
  8
0
  2
$PAPER_SPACE
 70
     0
 10
0.0
 20
0.0
 30
0.0
  3
$PAPER_SPACE
  1

  0
ENDBLK
  5
1D
 67
     1
  8
0
  0
ENDSEC
  0
SECTION
  2
ENTITIES
  0
POLYLINE
  5
6F
  8
FISHER___PAYKEL
 62
   216
 66
     1
 10
0.0
 20
0.0
 30
0.0
  0
VERTEX
  5
70
  8
FISHER___PAYKEL
 62
   216
 10
1294.113009014057
 20
3114.067568463069
 30
0.0
  0
VERTEX
  5
71
  8
FISHER___PAYKEL
 62
   216
 10
1446.156829041444
 20
2977.074106093173
 30
0.0
  0
VERTEX
  5
72
  8
FISHER___PAYKEL
 62
   216
 10
1604.65860448694
 20
2834.266251738683
 30
0.0
  0
VERTEX
  5
73
  8
FISHER___PAYKEL
 62
   216
 10
1614.833017489138
 20
2845.558785558013
 30
0.0
  0
SEQEND
  5
74
  8
FISHER___PAYKEL
 62
   216
  0
POLYLINE
  5
75
  8
FISHER___PAYKEL
 62
   216
 66
     1
 10
0.0
 20
0.0
 30
0.0
  0
VERTEX
  5
76
  8
FISHER___PAYKEL
 62
   216
 10
1316.820948680602
 20
3114.067568463069
 30
0.0
  0
VERTEX
  5
77
  8
FISHER___PAYKEL
 62
   216
 10
1620.62787037011
 20
2840.337705201622
 30
0.0
 42
0.4142135623731151
  0
VERTEX
  5
78
  8
FISHER___PAYKEL
 62
   216
 10
1623.452428579491
 20
2840.484803022057
 30
0.0
  0
VERTEX
  5
79
  8
FISHER___PAYKEL
 62
   216
 10
1657.590048538536
 20
2878.373417402595
 30
0.0
 42
0.4142135623731252
  0
VERTEX
  5
7A
  8
FISHER___PAYKEL
 62
   216
 10
1657.442950718081
 20
2881.197975612011
 30
0.0
  0
VERTEX
  5
7B
  8
FISHER___PAYKEL
 62
   216
 10
1655.95712270315
 20
2882.536705806726
 30
0.0
  0
VERTEX
  5
7C
  8
FISHER___PAYKEL
 62
   216
 10
1614.131071630893
 20
2920.221953980485
 30
0.0
  0
VERTEX
  5
7D
  8
FISHER___PAYKEL
 62
   216
 10
1640.570985423594
 20
2949.567064075894
 30
0.0
 42
0.4142135623729886
  0
VERTEX
  5
7E
  8
FISHER___PAYKEL
 62
   216
 10
1640.46066205826
 20
2951.685482732929
 30
0.0
  0
VERTEX
  5
7F
  8
FISHER___PAYKEL
 62
   216
 10
1630.802779961196
 20
2960.387228996583
 30
0.0
 42
0.4142135623729515
  0
VERTEX
  5
80
  8
FISHER___PAYKEL
 62
   216
 10
1628.684361304151
 20
2960.276905631247
 30
0.0
  0
VERTEX
  5
81
  8
FISHER___PAYKEL
 62
   216
 10
1602.244439963679
 20
2930.931802336851
 30
0.0
  0
VERTEX
  5
82
  8
FISHER___PAYKEL
 62
   216
 10
1328.852085217537
 20
3177.25815811973
 30
0.0
 42
0.4142135623731527
  0
VERTEX
  5
83
  8
FISHER___PAYKEL
 62
   216
 10
1326.02752700816
 20
3177.111060299299
 30
0.0
  0
VERTEX
  5
84
  8
FISHER___PAYKEL
 62
   216
 10
1323.401034790696
 20
3174.195972752794
 30
0.0
  0
SEQEND
  5
85
  8
FISHER___PAYKEL
 62
   216
  0
POLYLINE
  5
86
  8
FISHER___PAYKEL
 62
   216
 66
     1
 10
0.0
 20
0.0
 30
0.0
  0
VERTEX
  5
87
  8
FISHER___PAYKEL
 62
   216
 10
433.1811209007919
 20
3114.067568463069
 30
0.0
  0
VERTEX
  5
88
  8
FISHER___PAYKEL
 62
   216
 10
129.3741992112832
 20
2840.337705201622
 30
0.0
 42
-0.4142135623731777
  0
VERTEX
  5
89
  8
FISHER___PAYKEL
 62
   216
 10
126.5496410019028
 20
2840.484803022057
 30
0.0
  0
VERTEX
  5
8A
  8
FISHER___PAYKEL
 62
   216
 10
92.41202104285786
 20
2878.373417402595
 30
0.0
 42
-0.4142135623733393
  0
VERTEX
  5
8B
  8
FISHER___PAYKEL
 62
   216
 10
92.559118863315
 20
2881.197975612013
 30
0.0
  0
VERTEX
  5
8C
  8
FISHER___PAYKEL
 62
   216
 10
94.04494687824354
 20
2882.536705806726
 30
0.0
  0
VERTEX
  5
8D
  8
FISHER___PAYKEL
 62
   216
 10
135.8709979505006
 20
2920.221953980485
 30
0.0
  0
VERTEX
  5
8E
  8
FISHER___PAYKEL
 62
   216
 10
109.4310841578004
 20
2949.567064075894
 30
0.0
 42
-0.4142135623732494
  0
VERTEX
  5
8F
  8
FISHER___PAYKEL
 62
   216
 10
109.5414075231334
 20
2951.685482732929
 30
0.0
  0
VERTEX
  5
90
  8
FISHER___PAYKEL
 62
   216
 10
119.1992896201978
 20
2960.387228996583
 30
0.0
 42
-0.414213562373099
  0
VERTEX
  5
91
  8
FISHER___PAYKEL
 62
   216
 10
121.3177082772427
 20
2960.276905631248
 30
0.0
  0
VERTEX
  5
92
  8
FISHER___PAYKEL
 62
   216
 10
147.7576296177149
 20
2930.931802336851
 30
0.0
  0
VERTEX
  5
93
  8
FISHER___PAYKEL
 62
   216
 10
421.1499843638562
 20
3177.25815811973
 30
0.0
 42
-0.4142135623728742
  0
VERTEX
  5
94
  8
FISHER___PAYKEL
 62
   216
 10
423.9745425732337
 20
3177.111060299298
 30
0.0
  0
VERTEX
  5
95
  8
FISHER___PAYKEL
 62
   216
 10
424.0414790829709
 20
3177.036768898276
 30
0.0
  0
VERTEX
  5
96
  8
FISHER___PAYKEL
 62
   216
 10
426.6010347906968
 20
3174.195972752794
 30
0.0
  0
SEQEND
  5
97
  8
FISHER___PAYKEL
 62
   216
  0
POLYLINE
  5
98
  8
FISHER___PAYKEL
 62
   216
 66
     1
 10
0.0
 20
0.0
 30
0.0
  0
VERTEX
  5
99
  8
FISHER___PAYKEL
 62
   216
 10
455.8890605673364
 20
3114.067568463069
 30
0.0
  0
VERTEX
  5
9A
  8
FISHER___PAYKEL
 62
   216
 10
303.8452405399498
 20
2977.074106093173
 30
0.0
  0
VERTEX
  5
9B
  8
FISHER___PAYKEL
 62
   216
 10
145.3434650944537
 20
2834.266251738683
 30
0.0
  0
VERTEX
  5
9C
  8
FISHER___PAYKEL
 62
   216
 10
135.1690520922562
 20
2845.558785558013
 30
0.0
  0
SEQEND
  5
9D
  8
FISHER___PAYKEL
 62
   216
  0
LINE
  5
9E
  8
FISHER___PAYKEL
 62
   216
 10
1614.131071630893
 20
2920.221953980485
 30
0.0
 11
1602.244439963679
 21
2930.931802336851
 31
0.0
  0
POLYLINE
  5
9F
  8
FISHER___PAYKEL
 62
   216
 66
     1
 10
0.0
 20
0.0
 30
0.0
  0
VERTEX
  5
A0
  8
FISHER___PAYKEL
 62
   216
 10
1308.430329092049
 20
3098.03691403355
 30
0.0
 42
-0.1336468596873575
  0
VERTEX
  5
A1
  8
FISHER___PAYKEL
 62
   216
 10
1306.031314872439
 20
3091.387109941152
 30
0.0
  0
VERTEX
  5
A2
  8
FISHER___PAYKEL
 62
   216
 10
1293.44761563806
 20
3071.57310098376
 30
0.0
 42
0.3659480332447382
  0
VERTEX
  5
A3
  8
FISHER___PAYKEL
 62
   216
 10
1293.797150232569
 20
3069.015040078794
 30
0.0
  0
VERTEX
  5
A4
  8
FISHER___PAYKEL
 62
   216
 10
1423.611048691051
 20
2952.051026609793
 30
0.0
  0
VERTEX
  5
A5
  8
FISHER___PAYKEL
 62
   216
 10
1553.426702558716
 20
2835.088961431908
 30
0.0
 42
0.3659480332445945
  0
VERTEX
  5
A6
  8
FISHER___PAYKEL
 62
   216
 10
1556.007233149716
 20
2835.007035274983
 30
0.0
  0
VERTEX
  5
A7
  8
FISHER___PAYKEL
 62
   216
 10
1574.406929315985
 20
2849.580834312087
 30
0.0
 42
-0.1336468596873585
  0
VERTEX
  5
A8
  8
FISHER___PAYKEL
 62
   216
 10
1580.77156394728
 20
2852.657616674116
 30
0.0
  0
SEQEND
  5
A9
  8
FISHER___PAYKEL
 62
   216
  0
POLYLINE
  5
AA
  8
FISHER___PAYKEL
 62
   216
 66
     1
 10
0.0
 20
0.0
 30
0.0
  0
VERTEX
  5
AB
  8
FISHER___PAYKEL
 62
   216
 10
1299.412687800767
 20
3109.25681174339
 30
0.0
 42
0.1458057812653401
  0
VERTEX
  5
AC
  8
FISHER___PAYKEL
 62
   216
 10
1303.606737957744
 20
3102.383032477734
 30
0.0
  0
VERTEX
  5
AD
  8
FISHER___PAYKEL
 62
   216
 10
1444.600025841912
 20
2975.346243513284
 30
0.0
  0
VERTEX
  5
AE
  8
FISHER___PAYKEL
 62
   216
 10
1585.595220308621
 20
2848.311570624027
 30
0.0
 42
0.1458057812652422
  0
VERTEX
  5
AF
  8
FISHER___PAYKEL
 62
   216
 10
1592.867470530287
 20
2844.854219784767
 30
0.0
  0
SEQEND
  5
B0
  8
FISHER___PAYKEL
 62
   216
  0
ARC
  5
B1
  8
FISHER___PAYKEL
 62
   216
 10
1325.001034790695
 20
3159.067568463068
 30
0.0
 40
450.0
 50
206.4830041050746
 51
309.8718088831375
  0
ARC
  5
B2
  8
FISHER___PAYKEL
 62
   216
 10
425.0010347906982
 20
3159.067568463068
 30
0.0
 40
450.0
 50
230.1281911168625
 51
333.5169958949253
  0
POLYLINE
  5
B3
  8
FISHER___PAYKEL
 62
   216
 66
     1
 10
0.0
 20
0.0
 30
0.0
  0
VERTEX
  5
B4
  8
FISHER___PAYKEL
 62
   216
 10
450.589381780627
 20
3109.25681174339
 30
0.0
 42
-0.1458057812653336
  0
VERTEX
  5
B5
  8
FISHER___PAYKEL
 62
   216
 10
446.3953316236492
 20
3102.383032477734
 30
0.0
  0
VERTEX
  5
B6
  8
FISHER___PAYKEL
 62
   216
 10
305.402043739482
 20
2975.346243513284
 30
0.0
  0
VERTEX
  5
B7
  8
FISHER___PAYKEL
 62
   216
 10
164.4068492727722
 20
2848.311570624027
 30
0.0
 42
-0.145805781265207
  0
VERTEX
  5
B8
  8
FISHER___PAYKEL
 62
   216
 10
157.1345990511065
 20
2844.854219784767
 30
0.0
  0
SEQEND
  5
B9
  8
FISHER___PAYKEL
 62
   216
  0
POLYLINE
  5
BA
  8
FISHER___PAYKEL
 62
   216
 66
     1
 10
0.0
 20
0.0
 30
0.0
  0
VERTEX
  5
BB
  8
FISHER___PAYKEL
 62
   216
 10
441.5717404893444
 20
3098.03691403355
 30
0.0
 42
0.1336468596873572
  0
VERTEX
  5
BC
  8
FISHER___PAYKEL
 62
   216
 10
443.9707547089552
 20
3091.387109941153
 30
0.0
  0
VERTEX
  5
BD
  8
FISHER___PAYKEL
 62
   216
 10
456.554453943334
 20
3071.573100983759
 30
0.0
 42
-0.3659480332446627
  0
VERTEX
  5
BE
  8
FISHER___PAYKEL
 62
   216
 10
456.2049193488247
 20
3069.015040078794
 30
0.0
  0
VERTEX
  5
BF
  8
FISHER___PAYKEL
 62
   216
 10
326.391020890343
 20
2952.051026609793
 30
0.0
  0
VERTEX
  5
C0
  8
FISHER___PAYKEL
 62
   216
 10
196.5753670226777
 20
2835.088961431908
 30
0.0
 42
-0.3659480332445865
  0
VERTEX
  5
C1
  8
FISHER___PAYKEL
 62
   216
 10
193.9948364316783
 20
2835.007035274983
 30
0.0
  0
VERTEX
  5
C2
  8
FISHER___PAYKEL
 62
   216
 10
175.5951402654081
 20
2849.580834312086
 30
0.0
 42
0.1336468596873613
  0
VERTEX
  5
C3
  8
FISHER___PAYKEL
 62
   216
 10
169.2305056341134
 20
2852.657616674116
 30
0.0
  0
SEQEND
  5
C4
  8
FISHER___PAYKEL
 62
   216
  0
LINE
  5
C5
  8
FISHER___PAYKEL
 62
   216
 10
135.8709979505006
 20
2920.221953980485
 30
0.0
 11
147.7576296177149
 21
2930.931802336851
 31
0.0
  0
LINE
  5
C6
  8
FISHER___PAYKEL
 62
     5
 10
425.0010347906968
 20
3184.267568463069
 30
0.0
 11
0.0010347906968491
 21
3184.267568463069
 31
0.0
  0
LINE
  5
C7
  8
FISHER___PAYKEL
  6
CONTINUOUS
 62
     7
 10
943.7010347906967
 20
3073.067568463069
 30
0.0
 11
943.7010347906967
 21
3114.067568463069
 31
0.0
  0
LINE
  5
C8
  8
FISHER___PAYKEL
  6
CONTINUOUS
 62
     7
 10
928.3010347906966
 20
3073.067568463069
 30
0.0
 11
928.3010347906966
 21
3114.067568463069
 31
0.0
  0
LINE
  5
C9
  8
FISHER___PAYKEL
  6
CONTINUOUS
 62
     7
 10
887.8010347906966
 20
3169.067568463069
 30
0.0
 11
887.8010347906966
 21
3184.267568463069
 31
0.0
  0
LINE
  5
CA
  8
FISHER___PAYKEL
  6
CONTINUOUS
 62
     7
 10
880.0010347906968
 20
3169.067568463069
 30
0.0
 11
880.0010347906968
 21
3114.067568463069
 31
0.0
  0
LINE
  5
CB
  8
FISHER___PAYKEL
  6
CONTINUOUS
 62
     7
 10
870.0010347906968
 20
3169.067568463069
 30
0.0
 11
870.0010347906968
 21
3114.067568463069
 31
0.0
  0
LINE
  5
CC
  8
FISHER___PAYKEL
  6
CONTINUOUS
 62
     7
 10
862.2010347906967
 20
3169.067568463069
 30
0.0
 11
862.2010347906967
 21
3184.267568463069
 31
0.0
  0
LINE
  5
CD
  8
FISHER___PAYKEL
  6
CONTINUOUS
 62
     7
 10
821.7010347906967
 20
3114.067568463069
 30
0.0
 11
821.7010347906967
 21
3073.067568463069
 31
0.0
  0
LINE
  5
CE
  8
FISHER___PAYKEL
  6
CONTINUOUS
 62
     7
 10
806.3010347906966
 20
3114.067568463069
 30
0.0
 11
806.3010347906966
 21
3073.067568463069
 31
0.0
  0
LINE
  5
CF
  8
FISHER___PAYKEL
  6
CONTINUOUS
 62
     7
 10
1226.401034790697
 20
3184.267568463069
 30
0.0
 11
523.6010347906968
 21
3184.267568463069
 31
0.0
  0
LINE
  5
D0
  8
FISHER___PAYKEL
  6
CONTINUOUS
 62
     7
 10
806.3010347906966
 20
3087.536312448469
 30
0.0
 11
565.0010347906968
 21
3087.536312448469
 31
0.0
  0
LINE
  5
D1
  8
FISHER___PAYKEL
  6
CONTINUOUS
 62
     7
 10
928.3010347906966
 20
3087.536312448469
 30
0.0
 11
821.7010347906967
 21
3087.536312448469
 31
0.0
  0
LINE
  5
D2
  8
FISHER___PAYKEL
  6
CONTINUOUS
 62
     7
 10
1185.001034790697
 20
3087.536312448469
 30
0.0
 11
943.7010347906967
 21
3087.536312448469
 31
0.0
  0
LINE
  5
D3
  8
FISHER___PAYKEL
  6
CONTINUOUS
 62
     7
 10
928.3010347906966
 20
3086.267568463069
 30
0.0
 11
821.7010347906967
 21
3086.267568463069
 31
0.0
  0
POLYLINE
  5
D4
  8
FISHER___PAYKEL
  6
CONTINUOUS
 62
     7
 66
     1
 10
0.0
 20
0.0
 30
0.0
  0
VERTEX
  5
D5
  8
FISHER___PAYKEL
  6
CONTINUOUS
 62
     7
 10
523.6010347906968
 20
3169.067568463069
 30
0.0
  0
VERTEX
  5
D6
  8
FISHER___PAYKEL
  6
CONTINUOUS
 62
     7
 10
523.6010347906968
 20
3354.067568463069
 30
0.0
  0
VERTEX
  5
D7
  8
FISHER___PAYKEL
  6
CONTINUOUS
 62
     7
 10
426.6010347906968
 20
3354.067568463069
 30
0.0
  0
VERTEX
  5
D8
  8
FISHER___PAYKEL
  6
CONTINUOUS
 62
     7
 10
426.6010347906968
 20
3184.267568463069
 30
0.0
  0
SEQEND
  5
D9
  8
FISHER___PAYKEL
  6
CONTINUOUS
 62
     7
  0
POLYLINE
  5
DA
  8
FISHER___PAYKEL
  6
CONTINUOUS
 62
     7
 66
     1
 10
0.0
 20
0.0
 30
0.0
  0
VERTEX
  5
DB
  8
FISHER___PAYKEL
  6
CONTINUOUS
 62
     7
 10
806.3010347906966
 20
3086.267568463069
 30
0.0
  0
VERTEX
  5
DC
  8
FISHER___PAYKEL
  6
CONTINUOUS
 62
     7
 10
565.0010347906968
 20
3086.267568463069
 30
0.0
  0
VERTEX
  5
DD
  8
FISHER___PAYKEL
  6
CONTINUOUS
 62
     7
 10
565.0010347906968
 20
3114.067568463069
 30
0.0
  0
SEQEND
  5
DE
  8
FISHER___PAYKEL
  6
CONTINUOUS
 62
     7
  0
POLYLINE
  5
DF
  8
FISHER___PAYKEL
  6
CONTINUOUS
 62
     7
 66
     1
 10
0.0
 20
0.0
 30
0.0
  0
VERTEX
  5
E0
  8
FISHER___PAYKEL
  6
CONTINUOUS
 62
     7
 10
1185.001034790697
 20
3114.067568463069
 30
0.0
  0
VERTEX
  5
E1
  8
FISHER___PAYKEL
  6
CONTINUOUS
 62
     7
 10
1185.001034790697
 20
3086.267568463069
 30
0.0
  0
VERTEX
  5
E2
  8
FISHER___PAYKEL
  6
CONTINUOUS
 62
     7
 10
943.7010347906967
 20
3086.267568463069
 30
0.0
  0
SEQEND
  5
E3
  8
FISHER___PAYKEL
  6
CONTINUOUS
 62
     7
  0
POLYLINE
  5
E4
  8
FISHER___PAYKEL
  6
CONTINUOUS
 62
     7
 66
     1
 10
0.0
 20
0.0
 30
0.0
  0
VERTEX
  5
E5
  8
FISHER___PAYKEL
  6
CONTINUOUS
 62
     7
 10
465.0010347906968
 20
3114.067568463069
 30
0.0
  0
VERTEX
  5
E6
  8
FISHER___PAYKEL
  6
CONTINUOUS
 62
     7
 10
465.0010347906968
 20
3073.067568463069
 30
0.0
  0
VERTEX
  5
E7
  8
FISHER___PAYKEL
  6
CONTINUOUS
 62
     7
 10
1285.001034790697
 20
3073.067568463069
 30
0.0
  0
VERTEX
  5
E8
  8
FISHER___PAYKEL
  6
CONTINUOUS
 62
     7
 10
1285.001034790697
 20
3114.067568463069
 30
0.0
  0
SEQEND
  5
E9
  8
FISHER___PAYKEL
  6
CONTINUOUS
 62
     7
  0
LINE
  5
EA
  8
FISHER___PAYKEL
  6
CONTINUOUS
 62
     7
 10
1323.401034790696
 20
3169.067568463069
 30
0.0
 11
426.6010347906968
 21
3169.067568463069
 31
0.0
  0
POLYLINE
  5
EB
  8
FISHER___PAYKEL
  6
CONTINUOUS
 62
     7
 66
     1
 10
0.0
 20
0.0
 30
0.0
 70
     1
  0
VERTEX
  5
EC
  8
FISHER___PAYKEL
  6
CONTINUOUS
 62
     7
 10
1325.001034790697
 20
3169.067568463069
 30
0.0
  0
VERTEX
  5
ED
  8
FISHER___PAYKEL
  6
CONTINUOUS
 62
     7
 10
1323.401034790696
 20
3169.067568463069
 30
0.0
  0
VERTEX
  5
EE
  8
FISHER___PAYKEL
  6
CONTINUOUS
 62
     7
 10
1323.401034790696
 20
3184.267568463069
 30
0.0
  0
VERTEX
  5
EF
  8
FISHER___PAYKEL
  6
CONTINUOUS
 62
     7
 10
1325.001034790697
 20
3184.267568463069
 30
0.0
  0
VERTEX
  5
F0
  8
FISHER___PAYKEL
  6
CONTINUOUS
 62
     7
 10
1325.001034790697
 20
3779.267568463069
 30
0.0
  0
VERTEX
  5
F1
  8
FISHER___PAYKEL
  6
CONTINUOUS
 62
     7
 10
425.0010347906968
 20
3779.267568463069
 30
0.0
  0
VERTEX
  5
F2
  8
FISHER___PAYKEL
  6
CONTINUOUS
 62
     7
 10
425.0010347906968
 20
3184.267568463069
 30
0.0
  0
VERTEX
  5
F3
  8
FISHER___PAYKEL
  6
CONTINUOUS
 62
     7
 10
426.6010347906968
 20
3184.267568463069
 30
0.0
  0
VERTEX
  5
F4
  8
FISHER___PAYKEL
  6
CONTINUOUS
 62
     7
 10
426.6010347906968
 20
3169.067568463069
 30
0.0
  0
VERTEX
  5
F5
  8
FISHER___PAYKEL
  6
CONTINUOUS
 62
     7
 10
425.0010347906968
 20
3169.067568463069
 30
0.0
  0
VERTEX
  5
F6
  8
FISHER___PAYKEL
  6
CONTINUOUS
 62
     7
 10
425.0010347906968
 20
3114.067568463069
 30
0.0
  0
VERTEX
  5
F7
  8
FISHER___PAYKEL
  6
CONTINUOUS
 62
     7
 10
1325.001034790697
 20
3114.067568463069
 30
0.0
  0
SEQEND
  5
F8
  8
FISHER___PAYKEL
  6
CONTINUOUS
 62
     7
  0
POLYLINE
  5
F9
  8
FISHER___PAYKEL
  6
CONTINUOUS
 62
     7
 66
     1
 10
0.0
 20
0.0
 30
0.0
  0
VERTEX
  5
FA
  8
FISHER___PAYKEL
  6
CONTINUOUS
 62
     7
 10
1323.401034790696
 20
3184.267568463069
 30
0.0
  0
VERTEX
  5
FB
  8
FISHER___PAYKEL
  6
CONTINUOUS
 62
     7
 10
1323.401034790696
 20
3354.067568463069
 30
0.0
  0
VERTEX
  5
FC
  8
FISHER___PAYKEL
  6
CONTINUOUS
 62
     7
 10
1226.401034790697
 20
3354.067568463069
 30
0.0
  0
VERTEX
  5
FD
  8
FISHER___PAYKEL
  6
CONTINUOUS
 62
     7
 10
1226.401034790697
 20
3169.067568463069
 30
0.0
  0
SEQEND
  5
FE
  8
FISHER___PAYKEL
  6
CONTINUOUS
 62
     7
  0
POLYLINE
  5
FF
  8
FISHER___PAYKEL
 62
   216
 66
     1
 10
0.0
 20
0.0
 30
0.0
  0
VERTEX
  5
100
  8
FISHER___PAYKEL
 62
   216
 10
2448.591952023296
 20
981.8078660217016
 30
0.0
  0
VERTEX
  5
101
  8
FISHER___PAYKEL
 62
   216
 10
2043.791952023296
 20
981.8078660217016
 30
0.0
  0
VERTEX
  5
102
  8
FISHER___PAYKEL
 62
   216
 10
2043.791952023296
 20
2111.3078660217
 30
0.0
  0
VERTEX
  5
103
  8
FISHER___PAYKEL
 62
   216
 10
2448.591952023296
 20
2111.307866021701
 30
0.0
  0
SEQEND
  5
104
  8
FISHER___PAYKEL
 62
   216
  0
POLYLINE
  5
105
  8
FISHER___PAYKEL
  6
CONTINUOUS
 62
   216
 66
     1
 10
0.0
 20
0.0
 30
0.0
  0
VERTEX
  5
106
  8
FISHER___PAYKEL
  6
CONTINUOUS
 62
   216
 10
2073.791952023296
 20
877.7578660217018
 30
0.0
  0
VERTEX
  5
107
  8
FISHER___PAYKEL
  6
CONTINUOUS
 62
   216
 10
2032.791952023296
 20
877.7578660217018
 30
0.0
  0
VERTEX
  5
108
  8
FISHER___PAYKEL
  6
CONTINUOUS
 62
   216
 10
2032.791952023296
 20
862.3578660217022
 30
0.0
  0
VERTEX
  5
109
  8
FISHER___PAYKEL
  6
CONTINUOUS
 62
   216
 10
2073.791952023296
 20
862.3578660217022
 30
0.0
  0
SEQEND
  5
10A
  8
FISHER___PAYKEL
  6
CONTINUOUS
 62
   216
  0
POLYLINE
  5
10B
  8
FISHER___PAYKEL
 62
   216
 66
     1
 10
0.0
 20
0.0
 30
0.0
  0
VERTEX
  5
10C
  8
FISHER___PAYKEL
 62
   216
 10
2448.591952023296
 20
362.7578660217018
 30
0.0
  0
VERTEX
  5
10D
  8
FISHER___PAYKEL
 62
   216
 10
2073.791952023296
 20
362.7578660217023
 30
0.0
  0
VERTEX
  5
10E
  8
FISHER___PAYKEL
 62
   216
 10
2073.791952023296
 20
968.7578660217014
 30
0.0
  0
VERTEX
  5
10F
  8
FISHER___PAYKEL
 62
   216
 10
2448.591952023296
 20
968.7578660217018
 30
0.0
  0
SEQEND
  5
110
  8
FISHER___PAYKEL
 62
   216
  0
LINE
  5
111
  8
FISHER___PAYKEL
 10
2518.791952023296
 20
362.7578660217023
 30
0.0
 11
2518.791952023296
 21
384.0078660217018
 31
0.0
  0
ARC
  5
112
  8
FISHER___PAYKEL
  6
CONTINUOUS
 62
     7
 10
3047.791952023296
 20
346.807866021702
 30
0.0
 40
25.5
 50
183.3722866834001
 51
356.6277133166002
  0
ARC
  5
113
  8
FISHER___PAYKEL
  6
CONTINUOUS
 62
     7
 10
2606.291952023296
 20
346.807866021702
 30
0.0
 40
25.5
 50
183.3722866834001
 51
356.6277133166002
  0
LINE
  5
114
  8
FISHER___PAYKEL
  6
CONTINUOUS
 62
     7
 10
2503.591952023296
 20
2078.707866021702
 30
0.0
 11
2518.791952023296
 21
2078.707866021702
 31
0.0
  0
LINE
  5
115
  8
FISHER___PAYKEL
  6
CONTINUOUS
 62
     7
 10
2542.291952023296
 20
335.307866021702
 30
0.0
 11
2542.291952023296
 21
345.307866021702
 31
0.0
  0
LINE
  5
116
  8
FISHER___PAYKEL
  6
CONTINUOUS
 62
     7
 10
2532.491952023296
 20
335.307866021702
 30
0.0
 11
2532.491952023296
 21
345.307866021702
 31
0.0
  0
LINE
  5
117
  8
FISHER___PAYKEL
  6
CONTINUOUS
 62
     7
 10
2422.060696008696
 20
1573.607866021702
 30
0.0
 11
2422.060696008696
 21
1131.807866021702
 31
0.0
  0
LINE
  5
118
  8
FISHER___PAYKEL
  6
CONTINUOUS
 62
     7
 10
2503.591952023296
 20
2085.307866021702
 30
0.0
 11
2688.591952023296
 21
2085.307866021702
 31
0.0
  0
POLYLINE
  5
119
  8
FISHER___PAYKEL
  6
CONTINUOUS
 62
     7
 66
     1
 10
0.0
 20
0.0
 30
0.0
  0
VERTEX
  5
11A
  8
FISHER___PAYKEL
  6
CONTINUOUS
 62
     7
 10
2448.591952023296
 20
1573.607866021702
 30
0.0
  0
VERTEX
  5
11B
  8
FISHER___PAYKEL
  6
CONTINUOUS
 62
     7
 10
2420.791952023296
 20
1573.607866021702
 30
0.0
  0
VERTEX
  5
11C
  8
FISHER___PAYKEL
  6
CONTINUOUS
 62
     7
 10
2420.791952023296
 20
1131.807866021702
 30
0.0
  0
VERTEX
  5
11D
  8
FISHER___PAYKEL
  6
CONTINUOUS
 62
     7
 10
2448.591952023296
 20
1131.807866021702
 30
0.0
  0
SEQEND
  5
11E
  8
FISHER___PAYKEL
  6
CONTINUOUS
 62
     7
  0
POLYLINE
  5
11F
  8
FISHER___PAYKEL
  6
CONTINUOUS
 62
     7
 66
     1
 10
0.0
 20
0.0
 30
0.0
  0
VERTEX
  5
120
  8
FISHER___PAYKEL
  6
CONTINUOUS
 62
     7
 10
2448.591952023296
 20
1031.807866021702
 30
0.0
  0
VERTEX
  5
121
  8
FISHER___PAYKEL
  6
CONTINUOUS
 62
     7
 10
2407.591952023296
 20
1031.807866021702
 30
0.0
  0
VERTEX
  5
122
  8
FISHER___PAYKEL
  6
CONTINUOUS
 62
     7
 10
2407.591952023296
 20
1673.607866021702
 30
0.0
  0
VERTEX
  5
123
  8
FISHER___PAYKEL
  6
CONTINUOUS
 62
     7
 10
2448.591952023296
 20
1673.607866021702
 30
0.0
  0
SEQEND
  5
124
  8
FISHER___PAYKEL
  6
CONTINUOUS
 62
     7
  0
LINE
  5
125
  8
FISHER___PAYKEL
  6
CONTINUOUS
 62
     7
 10
2518.791952023296
 20
1004.307866021702
 30
0.0
 11
2518.791952023296
 21
2085.307866021702
 31
0.0
  0
LINE
  5
126
  8
FISHER___PAYKEL
  6
CONTINUOUS
 62
     7
 10
2503.591952023296
 20
1004.307866021702
 30
0.0
 11
2503.591952023296
 21
2105.807866021702
 31
0.0
  0
POLYLINE
  5
127
  8
FISHER___PAYKEL
  6
CONTINUOUS
 62
     7
 66
     1
 10
0.0
 20
0.0
 30
0.0
  0
VERTEX
  5
128
  8
FISHER___PAYKEL
  6
CONTINUOUS
 62
     7
 10
2448.591952023296
 20
877.7578660217018
 30
0.0
  0
VERTEX
  5
129
  8
FISHER___PAYKEL
  6
CONTINUOUS
 62
     7
 10
2407.591952023296
 20
877.7578660217018
 30
0.0
  0
VERTEX
  5
12A
  8
FISHER___PAYKEL
  6
CONTINUOUS
 62
     7
 10
2407.591952023296
 20
862.3578660217022
 30
0.0
  0
VERTEX
  5
12B
  8
FISHER___PAYKEL
  6
CONTINUOUS
 62
     7
 10
2448.591952023296
 20
862.3578660217022
 30
0.0
  0
SEQEND
  5
12C
  8
FISHER___PAYKEL
  6
CONTINUOUS
 62
     7
  0
LINE
  5
12D
  8
FISHER___PAYKEL
  6
CONTINUOUS
 62
     7
 10
2503.591952023296
 20
384.0078660217018
 30
0.0
 11
2503.591952023296
 21
964.0078660217018
 31
0.0
  0
LINE
  5
12E
  8
FISHER___PAYKEL
  6
CONTINUOUS
 62
     7
 10
2518.791952023296
 20
384.0078660217018
 30
0.0
 11
2518.791952023296
 21
964.0078660217018
 31
0.0
  0
POLYLINE
  5
12F
  8
FISHER___PAYKEL
  6
CONTINUOUS
 62
     7
 66
     1
 10
0.0
 20
0.0
 30
0.0
 70
     1
  0
VERTEX
  5
130
  8
FISHER___PAYKEL
  6
CONTINUOUS
 62
     7
 10
2518.791952023296
 20
345.307866021702
 30
0.0
  0
VERTEX
  5
131
  8
FISHER___PAYKEL
  6
CONTINUOUS
 62
     7
 10
3113.791952023296
 20
345.307866021702
 30
0.0
  0
VERTEX
  5
132
  8
FISHER___PAYKEL
  6
CONTINUOUS
 62
     7
 10
3113.791952023296
 20
2085.307866021702
 30
0.0
  0
VERTEX
  5
133
  8
FISHER___PAYKEL
  6
CONTINUOUS
 62
     7
 10
2688.591952023296
 20
2085.307866021702
 30
0.0
  0
VERTEX
  5
134
  8
FISHER___PAYKEL
  6
CONTINUOUS
 62
     7
 10
2688.591952023296
 20
2105.807866021702
 30
0.0
  0
VERTEX
  5
135
  8
FISHER___PAYKEL
  6
CONTINUOUS
 62
     7
 10
2503.591952023296
 20
2105.807866021702
 30
0.0
  0
VERTEX
  5
136
  8
FISHER___PAYKEL
  6
CONTINUOUS
 62
     7
 10
2503.591952023296
 20
2111.307866021702
 30
0.0
  0
VERTEX
  5
137
  8
FISHER___PAYKEL
  6
CONTINUOUS
 62
     7
 10
2448.591952023296
 20
2111.307866021702
 30
0.0
  0
VERTEX
  5
138
  8
FISHER___PAYKEL
  6
CONTINUOUS
 62
     7
 10
2448.591952023296
 20
981.807866021702
 30
0.0
  0
VERTEX
  5
139
  8
FISHER___PAYKEL
  6
CONTINUOUS
 62
     7
 10
2503.591952023296
 20
981.807866021702
 30
0.0
  0
VERTEX
  5
13A
  8
FISHER___PAYKEL
  6
CONTINUOUS
 62
     7
 10
2503.591952023296
 20
1004.307866021702
 30
0.0
  0
VERTEX
  5
13B
  8
FISHER___PAYKEL
  6
CONTINUOUS
 62
     7
 10
2518.791952023296
 20
1004.307866021702
 30
0.0
  0
VERTEX
  5
13C
  8
FISHER___PAYKEL
  6
CONTINUOUS
 62
     7
 10
2518.791952023296
 20
964.0078660217018
 30
0.0
  0
VERTEX
  5
13D
  8
FISHER___PAYKEL
  6
CONTINUOUS
 62
     7
 10
2503.591952023296
 20
964.0078660217018
 30
0.0
  0
VERTEX
  5
13E
  8
FISHER___PAYKEL
  6
CONTINUOUS
 62
     7
 10
2503.591952023296
 20
968.7578660217018
 30
0.0
  0
VERTEX
  5
13F
  8
FISHER___PAYKEL
  6
CONTINUOUS
 62
     7
 10
2448.591952023296
 20
968.7578660217018
 30
0.0
  0
VERTEX
  5
140
  8
FISHER___PAYKEL
  6
CONTINUOUS
 62
     7
 10
2448.591952023296
 20
362.7578660217018
 30
0.0
  0
VERTEX
  5
141
  8
FISHER___PAYKEL
  6
CONTINUOUS
 62
     7
 10
2503.591952023296
 20
362.7578660217018
 30
0.0
  0
VERTEX
  5
142
  8
FISHER___PAYKEL
  6
CONTINUOUS
 62
     7
 10
2503.591952023296
 20
384.0078660217018
 30
0.0
  0
VERTEX
  5
143
  8
FISHER___PAYKEL
  6
CONTINUOUS
 62
     7
 10
2518.791952023296
 20
384.0078660217018
 30
0.0
  0
SEQEND
  5
144
  8
FISHER___PAYKEL
  6
CONTINUOUS
 62
     7
  0
POLYLINE
  5
145
  8
FISHER___PAYKEL
  6
CONTINUOUS
 62
     7
 66
     1
 10
0.0
 20
0.0
 30
0.0
 70
     1
  0
VERTEX
  5
146
  8
FISHER___PAYKEL
  6
CONTINUOUS
 62
     7
 10
2567.391952023296
 20
321.307866021702
 30
0.0
  0
VERTEX
  5
147
  8
FISHER___PAYKEL
  6
CONTINUOUS
 62
     7
 10
2507.391952023296
 20
321.307866021702
 30
0.0
  0
VERTEX
  5
148
  8
FISHER___PAYKEL
  6
CONTINUOUS
 62
     7
 10
2507.391952023296
 20
335.307866021702
 30
0.0
  0
VERTEX
  5
149
  8
FISHER___PAYKEL
  6
CONTINUOUS
 62
     7
 10
2567.391952023296
 20
335.307866021702
 30
0.0
  0
SEQEND
  5
14A
  8
FISHER___PAYKEL
  6
CONTINUOUS
 62
     7
  0
POLYLINE
  5
14B
  8
FISHER___PAYKEL
  6
CONTINUOUS
 62
     7
 66
     1
 10
0.0
 20
0.0
 30
0.0
  0
VERTEX
  5
14C
  8
FISHER___PAYKEL
  6
CONTINUOUS
 62
     7
 10
880.0010347906959
 20
2085.307866021701
 30
0.0
  0
VERTEX
  5
14D
  8
FISHER___PAYKEL
  6
CONTINUOUS
 62
     7
 10
880.0010347906959
 20
981.8078660217011
 30
0.0
  0
VERTEX
  5
14E
  8
FISHER___PAYKEL
  6
CONTINUOUS
 62
     7
 10
1325.001034790696
 20
981.8078660217011
 30
0.0
  0
SEQEND
  5
14F
  8
FISHER___PAYKEL
  6
CONTINUOUS
 62
     7
  0
POLYLINE
  5
150
  8
FISHER___PAYKEL
  6
CONTINUOUS
 62
     7
 66
     1
 10
0.0
 20
0.0
 30
0.0
  0
VERTEX
  5
151
  8
FISHER___PAYKEL
  6
CONTINUOUS
 62
     7
 10
425.0010347906959
 20
981.8078660217011
 30
0.0
  0
VERTEX
  5
152
  8
FISHER___PAYKEL
  6
CONTINUOUS
 62
     7
 10
870.0010347906959
 20
981.8078660217011
 30
0.0
  0
VERTEX
  5
153
  8
FISHER___PAYKEL
  6
CONTINUOUS
 62
     7
 10
870.0010347906959
 20
2085.307866021701
 30
0.0
  0
SEQEND
  5
154
  8
FISHER___PAYKEL
  6
CONTINUOUS
 62
     7
  0
POLYLINE
  5
155
  8
FISHER___PAYKEL
  6
CONTINUOUS
 62
     7
 66
     1
 10
0.0
 20
0.0
 30
0.0
 70
     1
  0
VERTEX
  5
156
  8
FISHER___PAYKEL
  6
CONTINUOUS
 62
     7
 10
465.0010347906959
 20
877.7578660217009
 30
0.0
  0
VERTEX
  5
157
  8
FISHER___PAYKEL
  6
CONTINUOUS
 62
     7
 10
465.0010347906959
 20
862.3578660217013
 30
0.0
  0
VERTEX
  5
158
  8
FISHER___PAYKEL
  6
CONTINUOUS
 62
     7
 10
1285.001034790696
 20
862.3578660217013
 30
0.0
  0
VERTEX
  5
159
  8
FISHER___PAYKEL
  6
CONTINUOUS
 62
     7
 10
1285.001034790696
 20
877.7578660217009
 30
0.0
  0
SEQEND
  5
15A
  8
FISHER___PAYKEL
  6
CONTINUOUS
 62
     7
  0
POLYLINE
  5
15B
  8
FISHER___PAYKEL
  6
CONTINUOUS
 62
     7
 66
     1
 10
0.0
 20
0.0
 30
0.0
  0
VERTEX
  5
15C
  8
FISHER___PAYKEL
  6
CONTINUOUS
 62
     7
 10
1251.651034790696
 20
345.3078660217011
 30
0.0
  0
VERTEX
  5
15D
  8
FISHER___PAYKEL
  6
CONTINUOUS
 62
     7
 10
1251.651034790696
 20
321.3078660217011
 30
0.0
  0
VERTEX
  5
15E
  8
FISHER___PAYKEL
  6
CONTINUOUS
 62
     7
 10
1324.501034790696
 20
321.3078660217011
 30
0.0
  0
VERTEX
  5
15F
  8
FISHER___PAYKEL
  6
CONTINUOUS
 62
     7
 10
1324.501034790696
 20
335.3078660217011
 30
0.0
  0
VERTEX
  5
160
  8
FISHER___PAYKEL
  6
CONTINUOUS
 62
     7
 10
1264.501034790696
 20
335.3078660217011
 30
0.0
  0
VERTEX
  5
161
  8
FISHER___PAYKEL
  6
CONTINUOUS
 62
     7
 10
1264.501034790696
 20
321.3078660217011
 30
0.0
  0
SEQEND
  5
162
  8
FISHER___PAYKEL
  6
CONTINUOUS
 62
     7
  0
POLYLINE
  5
163
  8
FISHER___PAYKEL
  6
CONTINUOUS
 62
     7
 66
     1
 10
0.0
 20
0.0
 30
0.0
  0
VERTEX
  5
164
  8
FISHER___PAYKEL
  6
CONTINUOUS
 62
     7
 10
498.3510347906958
 20
345.3078660217011
 30
0.0
  0
VERTEX
  5
165
  8
FISHER___PAYKEL
  6
CONTINUOUS
 62
     7
 10
498.3510347906958
 20
321.3078660217011
 30
0.0
  0
VERTEX
  5
166
  8
FISHER___PAYKEL
  6
CONTINUOUS
 62
     7
 10
425.5010347906959
 20
321.3078660217011
 30
0.0
  0
VERTEX
  5
167
  8
FISHER___PAYKEL
  6
CONTINUOUS
 62
     7
 10
425.5010347906959
 20
335.3078660217011
 30
0.0
  0
VERTEX
  5
168
  8
FISHER___PAYKEL
  6
CONTINUOUS
 62
     7
 10
485.5010347906959
 20
335.3078660217011
 30
0.0
  0
VERTEX
  5
169
  8
FISHER___PAYKEL
  6
CONTINUOUS
 62
     7
 10
485.5010347906959
 20
321.3078660217011
 30
0.0
  0
SEQEND
  5
16A
  8
FISHER___PAYKEL
  6
CONTINUOUS
 62
     7
  0
POLYLINE
  5
16B
  8
FISHER___PAYKEL
  6
CONTINUOUS
 62
     7
 66
     1
 10
0.0
 20
0.0
 30
0.0
 70
     1
  0
VERTEX
  5
16C
  8
FISHER___PAYKEL
  6
CONTINUOUS
 62
     7
 10
1325.001034790696
 20
345.3078660217011
 30
0.0
  0
VERTEX
  5
16D
  8
FISHER___PAYKEL
  6
CONTINUOUS
 62
     7
 10
1325.001034790696
 20
2111.307866021701
 30
0.0
  0
VERTEX
  5
16E
  8
FISHER___PAYKEL
  6
CONTINUOUS
 62
     7
 10
880.0010347906959
 20
2111.307866021701
 30
0.0
  0
VERTEX
  5
16F
  8
FISHER___PAYKEL
  6
CONTINUOUS
 62
     7
 10
880.0010347906959
 20
2085.307866021701
 30
0.0
  0
VERTEX
  5
170
  8
FISHER___PAYKEL
  6
CONTINUOUS
 62
     7
 10
870.0010347906959
 20
2085.307866021701
 30
0.0
  0
VERTEX
  5
171
  8
FISHER___PAYKEL
  6
CONTINUOUS
 62
     7
 10
870.0010347906959
 20
2111.307866021701
 30
0.0
  0
VERTEX
  5
172
  8
FISHER___PAYKEL
  6
CONTINUOUS
 62
     7
 10
425.0010347906959
 20
2111.307866021701
 30
0.0
  0
VERTEX
  5
173
  8
FISHER___PAYKEL
  6
CONTINUOUS
 62
     7
 10
425.0010347906959
 20
345.3078660217011
 30
0.0
  0
SEQEND
  5
174
  8
FISHER___PAYKEL
  6
CONTINUOUS
 62
     7
  0
POLYLINE
  5
175
  8
FISHER___PAYKEL
  6
CONTINUOUS
 62
     7
 66
     1
 10
0.0
 20
0.0
 30
0.0
 70
     1
  0
VERTEX
  5
176
  8
FISHER___PAYKEL
  6
CONTINUOUS
 62
     7
 10
943.7010347906958
 20
1031.807866021701
 30
0.0
  0
VERTEX
  5
177
  8
FISHER___PAYKEL
  6
CONTINUOUS
 62
     7
 10
928.3010347906957
 20
1031.807866021701
 30
0.0
  0
VERTEX
  5
178
  8
FISHER___PAYKEL
  6
CONTINUOUS
 62
     7
 10
928.3010347906957
 20
1673.607866021701
 30
0.0
  0
VERTEX
  5
179
  8
FISHER___PAYKEL
  6
CONTINUOUS
 62
     7
 10
943.7010347906958
 20
1673.607866021701
 30
0.0
  0
SEQEND
  5
17A
  8
FISHER___PAYKEL
  6
CONTINUOUS
 62
     7
  0
POLYLINE
  5
17B
  8
FISHER___PAYKEL
  6
CONTINUOUS
 62
     7
 66
     1
 10
0.0
 20
0.0
 30
0.0
 70
     1
  0
VERTEX
  5
17C
  8
FISHER___PAYKEL
  6
CONTINUOUS
 62
     7
 10
821.7010347906958
 20
1031.807866021701
 30
0.0
  0
VERTEX
  5
17D
  8
FISHER___PAYKEL
  6
CONTINUOUS
 62
     7
 10
806.3010347906957
 20
1031.807866021701
 30
0.0
  0
VERTEX
  5
17E
  8
FISHER___PAYKEL
  6
CONTINUOUS
 62
     7
 10
806.3010347906957
 20
1673.607866021701
 30
0.0
  0
VERTEX
  5
17F
  8
FISHER___PAYKEL
  6
CONTINUOUS
 62
     7
 10
821.7010347906958
 20
1673.607866021701
 30
0.0
  0
SEQEND
  5
180
  8
FISHER___PAYKEL
  6
CONTINUOUS
 62
     7
  0
LINE
  5
181
  8
FISHER___PAYKEL
  6
CONTINUOUS
 62
     7
 10
425.0010347906959
 20
362.7578660217009
 30
0.0
 11
1325.001034790696
 21
362.7578660217009
 31
0.0
  0
LINE
  5
182
  8
FISHER___PAYKEL
  6
CONTINUOUS
 62
     7
 10
450.6010347906958
 20
335.3078660217011
 30
0.0
 11
450.6010347906958
 21
345.3078660217011
 31
0.0
  0
LINE
  5
183
  8
FISHER___PAYKEL
  6
CONTINUOUS
 62
     7
 10
460.401034790696
 20
335.3078660217011
 30
0.0
 11
460.401034790696
 21
345.3078660217011
 31
0.0
  0
LINE
  5
184
  8
FISHER___PAYKEL
  6
CONTINUOUS
 62
     7
 10
462.651034790696
 20
345.3078660217011
 30
0.0
 11
462.651034790696
 21
335.3078660217011
 31
0.0
  0
LINE
  5
185
  8
FISHER___PAYKEL
  6
CONTINUOUS
 62
     7
 10
479.3510347906958
 20
345.3078660217011
 30
0.0
 11
479.3510347906958
 21
335.3078660217011
 31
0.0
  0
LINE
  5
186
  8
FISHER___PAYKEL
  6
CONTINUOUS
 62
     7
 10
481.651034790696
 20
345.3078660217011
 30
0.0
 11
481.651034790696
 21
335.3078660217011
 31
0.0
  0
LINE
  5
187
  8
FISHER___PAYKEL
  6
CONTINUOUS
 62
     7
 10
1325.001034790696
 20
968.7578660217009
 30
0.0
 11
425.0010347906959
 21
968.7578660217009
 31
0.0
  0
LINE
  5
188
  8
FISHER___PAYKEL
  6
CONTINUOUS
 62
     7
 10
1268.351034790696
 20
345.3078660217011
 30
0.0
 11
1268.351034790696
 21
335.3078660217011
 31
0.0
  0
LINE
  5
189
  8
FISHER___PAYKEL
  6
CONTINUOUS
 62
     7
 10
1270.651034790696
 20
345.3078660217011
 30
0.0
 11
1270.651034790696
 21
335.3078660217011
 31
0.0
  0
LINE
  5
18A
  8
FISHER___PAYKEL
  6
CONTINUOUS
 62
     7
 10
1287.351034790696
 20
345.3078660217011
 30
0.0
 11
1287.351034790696
 21
335.3078660217011
 31
0.0
  0
LINE
  5
18B
  8
FISHER___PAYKEL
  6
CONTINUOUS
 62
     7
 10
1289.601034790696
 20
335.3078660217011
 30
0.0
 11
1289.601034790696
 21
345.3078660217011
 31
0.0
  0
LINE
  5
18C
  8
FISHER___PAYKEL
  6
CONTINUOUS
 62
     7
 10
1299.401034790696
 20
335.3078660217011
 30
0.0
 11
1299.401034790696
 21
345.3078660217011
 31
0.0
  0
LINE
  5
18D
  8
FISHER___PAYKEL
 62
     5
 10
1749.501034790697
 20
3184.267568463069
 30
0.0
 11
1324.501034790697
 21
3184.267568463069
 31
0.0
  0
LINE
  5
18E
  8
FISHER___PAYKEL
  6
CONTINUOUS
 62
     7
 10
1323.901034790697
 20
3184.267568463069
 30
0.0
 11
1323.901034790697
 21
3354.067568463068
 31
0.0
  0
LINE
  5
18F
  8
FISHER___PAYKEL
 10
1324.501034790696
 20
321.3078660217011
 30
0.0
 11
1460.501034790696
 21
321.3078660217006
 31
0.0
  0
POLYLINE
  5
190
  8
FISHER___PAYKEL
  6
CONTINUOUS
 62
     7
 66
     1
 10
0.0
 20
0.0
 30
0.0
  0
VERTEX
  5
191
  8
FISHER___PAYKEL
  6
CONTINUOUS
 62
     7
 10
3143.791952023296
 20
411.3078660217011
 30
0.0
  0
VERTEX
  5
192
  8
FISHER___PAYKEL
  6
CONTINUOUS
 62
     7
 10
3169.791952023296
 20
411.3078367287012
 30
0.0
  0
VERTEX
  5
193
  8
FISHER___PAYKEL
  6
CONTINUOUS
 62
     7
 10
3169.791952023296
 20
401.307895314651
 30
0.0
  0
VERTEX
  5
194
  8
FISHER___PAYKEL
  6
CONTINUOUS
 62
     7
 10
3143.791952023296
 20
401.3078660217011
 30
0.0
  0
SEQEND
  5
195
  8
FISHER___PAYKEL
  6
CONTINUOUS
 62
     7
  0
POLYLINE
  5
196
  8
FISHER___PAYKEL
 62
     7
 66
     1
 10
0.0
 20
0.0
 30
0.0
  0
VERTEX
  5
197
  8
FISHER___PAYKEL
 62
     7
 10
3113.791952023296
 20
345.307866021702
 30
0.0
  0
VERTEX
  5
198
  8
FISHER___PAYKEL
 62
     7
 10
3143.791952023296
 20
345.307866021702
 30
0.0
  0
VERTEX
  5
199
  8
FISHER___PAYKEL
 62
     7
 10
3143.791952023296
 20
570.1278660217017
 30
0.0
  0
VERTEX
  5
19A
  8
FISHER___PAYKEL
 62
     7
 10
3113.791952023296
 20
600.1278660217017
 30
0.0
  0
SEQEND
  5
19B
  8
FISHER___PAYKEL
 62
     7
  0
POLYLINE
  5
19C
  8
FISHER___PAYKEL
 62
     1
 66
     1
 10
0.0
 20
0.0
 30
0.0
  0
VERTEX
  5
19D
  8
FISHER___PAYKEL
 62
     1
 10
3143.791952023296
 20
321.3078660217011
 30
0.0
  0
VERTEX
  5
19E
  8
FISHER___PAYKEL
 62
     1
 10
3143.791952023296
 20
2131.307866021701
 30
0.0
  0
VERTEX
  5
19F
  8
FISHER___PAYKEL
 62
     1
 10
2448.791952023295
 20
2131.307866021702
 30
0.0
  0
SEQEND
  5
1A0
  8
FISHER___PAYKEL
 62
     1
  0
LINE
  5
1A1
  8
FISHER___PAYKEL
 62
     1
 10
1345.001034790696
 20
3809.267568463069
 30
0.0
 11
1345.001034790696
 21
3184.267568463069
 31
0.0
  0
LINE
  5
1A2
  8
FISHER___PAYKEL
 62
     1
 10
405.0010347906968
 20
3809.267568463069
 30
0.0
 11
405.0010347906973
 21
3184.267568463069
 31
0.0
  0
LINE
  5
1A3
  8
FISHER___PAYKEL
 62
     1
 10
290.0010347906968
 20
3114.067568463068
 30
0.0
 11
290.0010347906968
 21
3809.267568463069
 31
0.0
  0
POLYLINE
  5
1A4
  8
FISHER___PAYKEL
 62
     1
 66
     1
 10
0.0
 20
0.0
 30
0.0
  0
VERTEX
  5
1A5
  8
FISHER___PAYKEL
 62
     1
 10
290.0010347906968
 20
3809.267568463069
 30
0.0
  0
VERTEX
  5
1A6
  8
FISHER___PAYKEL
 62
     1
 10
1460.001034790697
 20
3809.267568463069
 30
0.0
  0
VERTEX
  5
1A7
  8
FISHER___PAYKEL
 62
     1
 10
1460.001034790697
 20
3114.067568463068
 30
0.0
  0
SEQEND
  5
1A8
  8
FISHER___PAYKEL
 62
     1
  0
POLYLINE
  5
1A9
  8
FISHER___PAYKEL
 62
     7
 66
     1
 10
0.0
 20
0.0
 30
0.0
  0
VERTEX
  5
1AA
  8
FISHER___PAYKEL
 62
     7
 10
445.0010347906968
 20
3779.267568463069
 30
0.0
  0
VERTEX
  5
1AB
  8
FISHER___PAYKEL
 62
     7
 10
445.0010347906968
 20
3809.267568463069
 30
0.0
  0
VERTEX
  5
1AC
  8
FISHER___PAYKEL
 62
     7
 10
1305.001034790697
 20
3809.267568463069
 30
0.0
  0
VERTEX
  5
1AD
  8
FISHER___PAYKEL
 62
     7
 10
1305.001034790697
 20
3779.267568463069
 30
0.0
  0
SEQEND
  5
1AE
  8
FISHER___PAYKEL
 62
     7
  0
POLYLINE
  5
1AF
  8
FISHER___PAYKEL
  6
CONTINUOUS
 62
     7
 66
     1
 10
0.0
 20
0.0
 30
0.0
  0
VERTEX
  5
1B0
  8
FISHER___PAYKEL
  6
CONTINUOUS
 62
     7
 10
1149.501034790697
 20
3809.267568463069
 30
0.0
  0
VERTEX
  5
1B1
  8
FISHER___PAYKEL
  6
CONTINUOUS
 62
     7
 10
1149.501034790697
 20
3835.267568463069
 30
0.0
  0
VERTEX
  5
1B2
  8
FISHER___PAYKEL
  6
CONTINUOUS
 62
     7
 10
1159.501034790697
 20
3835.267568463069
 30
0.0
  0
VERTEX
  5
1B3
  8
FISHER___PAYKEL
  6
CONTINUOUS
 62
     7
 10
1159.501034790697
 20
3809.267568463069
 30
0.0
  0
SEQEND
  5
1B4
  8
FISHER___PAYKEL
  6
CONTINUOUS
 62
     7
  0
LINE
  5
1B5
  8
FISHER___PAYKEL
 62
     1
 10
405.0010347906959
 20
2131.307866021701
 30
0.0
 11
405.0010347906959
 21
321.3078660217006
 31
0.0
  0
LINE
  5
1B6
  8
FISHER___PAYKEL
 62
     1
 10
1345.001034790696
 20
2131.307866021701
 30
0.0
 11
1345.001034790696
 21
321.3078660217006
 31
0.0
  0
POLYLINE
  5
1B7
  8
FISHER___PAYKEL
 62
     1
 66
     1
 10
0.0
 20
0.0
 30
0.0
  0
VERTEX
  5
1B8
  8
FISHER___PAYKEL
 62
     1
 10
1460.001034790696
 20
321.3078660217006
 30
0.0
  0
VERTEX
  5
1B9
  8
FISHER___PAYKEL
 62
     1
 10
1460.001034790696
 20
2131.307866021701
 30
0.0
  0
VERTEX
  5
1BA
  8
FISHER___PAYKEL
 62
     1
 10
290.0010347906959
 20
2131.307866021701
 30
0.0
  0
VERTEX
  5
1BB
  8
FISHER___PAYKEL
 62
     1
 10
290.0010347906964
 20
321.3078660217002
 30
0.0
  0
SEQEND
  5
1BC
  8
FISHER___PAYKEL
 62
     1
  0
POLYLINE
  5
1BD
  8
FISHER___PAYKEL
 62
     7
 66
     1
 10
0.0
 20
0.0
 30
0.0
 70
     1
  0
VERTEX
  5
1BE
  8
FISHER___PAYKEL
 62
     7
 10
1102.502583093839
 20
1287.308226639143
 30
0.0
  0
VERTEX
  5
1BF
  8
FISHER___PAYKEL
 62
     7
 10
1236.999168987425
 20
1287.308226639142
 30
0.0
 42
0.4143343049659058
  0
VERTEX
  5
1C0
  8
FISHER___PAYKEL
 62
     7
 10
1244.502755563047
 20
1294.804757656162
 30
0.0
  0
VERTEX
  5
1C1
  8
FISHER___PAYKEL
 62
     7
 10
1244.502755563047
 20
1306.806262842001
 30
0.0
  0
VERTEX
  5
1C2
  8
FISHER___PAYKEL
 62
     7
 10
1094.998996518214
 20
1306.806262842001
 30
0.0
  0
VERTEX
  5
1C3
  8
FISHER___PAYKEL
 62
     7
 10
1094.998996518213
 20
1294.804757656162
 30
0.0
 42
0.4143343049659262
  0
SEQEND
  5
1C4
  8
FISHER___PAYKEL
 62
     7
  0
LINE
  5
1C5
  8
FISHER___PAYKEL
 62
     7
 10
1094.999349296143
 20
1479.406745755786
 30
0.0
 11
1244.503108340977
 21
1479.406745755786
 31
0.0
  0
POLYLINE
  5
1C6
  8
FISHER___PAYKEL
 62
     7
 66
     1
 10
0.0
 20
0.0
 30
0.0
 70
     1
  0
VERTEX
  5
1C7
  8
FISHER___PAYKEL
 62
     7
 10
1102.502583093839
 20
1286.805165310659
 30
0.0
  0
VERTEX
  5
1C8
  8
FISHER___PAYKEL
 62
     7
 10
1236.999168987425
 20
1286.805165310659
 30
0.0
 42
0.4141865176016877
  0
VERTEX
  5
1C9
  8
FISHER___PAYKEL
 62
     7
 10
1245.000172444648
 20
1294.806168767885
 30
0.0
  0
VERTEX
  5
1CA
  8
FISHER___PAYKEL
 62
     7
 10
1245.000172444648
 20
1514.410430325278
 30
0.0
 42
0.414277805724277
  0
VERTEX
  5
1CB
  8
FISHER___PAYKEL
 62
     7
 10
1236.999168987425
 20
1522.407906003202
 30
0.0
  0
VERTEX
  5
1CC
  8
FISHER___PAYKEL
 62
     7
 10
1102.502583093839
 20
1522.407906003201
 30
0.0
 42
0.4141863973188324
  0
VERTEX
  5
1CD
  8
FISHER___PAYKEL
 62
     7
 10
1094.49805185731
 20
1514.410430325279
 30
0.0
  0
VERTEX
  5
1CE
  8
FISHER___PAYKEL
 62
     7
 10
1094.49805185731
 20
1294.806168767885
 30
0.0
 42
0.4140951838220208
  0
SEQEND
  5
1CF
  8
FISHER___PAYKEL
 62
     7
  0
POLYLINE
  5
1D0
  8
FISHER___PAYKEL
 62
     7
 66
     1
 10
0.0
 20
0.0
 30
0.0
  0
VERTEX
  5
1D1
  8
FISHER___PAYKEL
 62
     7
 10
1162.251170022238
 20
1473.908701713422
 30
0.0
  0
VERTEX
  5
1D2
  8
FISHER___PAYKEL
 62
     7
 10
1162.251170022238
 20
1465.907698256196
 30
0.0
  0
VERTEX
  5
1D3
  8
FISHER___PAYKEL
 62
     7
 10
1177.251287614883
 20
1465.907698256196
 30
0.0
  0
VERTEX
  5
1D4
  8
FISHER___PAYKEL
 62
     7
 10
1177.251287614883
 20
1473.908701713422
 30
0.0
  0
SEQEND
  5
1D5
  8
FISHER___PAYKEL
 62
     7
  0
POLYLINE
  5
1D6
  8
FISHER___PAYKEL
 62
     7
 66
     1
 10
0.0
 20
0.0
 30
0.0
  0
VERTEX
  5
1D7
  8
FISHER___PAYKEL
 62
     7
 10
1193.250119527958
 20
1473.908701713422
 30
0.0
  0
VERTEX
  5
1D8
  8
FISHER___PAYKEL
 62
     7
 10
1193.250119527958
 20
1420.406400817366
 30
0.0
 42
-0.4140606435202428
  0
VERTEX
  5
1D9
  8
FISHER___PAYKEL
 62
     7
 10
1185.750060731636
 20
1412.90281424174
 30
0.0
  0
VERTEX
  5
1DA
  8
FISHER___PAYKEL
 62
     7
 10
1153.753102461345
 20
1412.902814241741
 30
0.0
 42
-0.413963328631954
  0
VERTEX
  5
1DB
  8
FISHER___PAYKEL
 62
     7
 10
1146.249515885723
 20
1420.406400817366
 30
0.0
  0
VERTEX
  5
1DC
  8
FISHER___PAYKEL
 62
     7
 10
1146.249515885723
 20
1473.908701713422
 30
0.0
  0
SEQEND
  5
1DD
  8
FISHER___PAYKEL
 62
     7
  0
POLYLINE
  5
1DE
  8
FISHER___PAYKEL
 62
     7
 66
     1
 10
0.0
 20
0.0
 30
0.0
  0
VERTEX
  5
1DF
  8
FISHER___PAYKEL
 62
     7
 10
1190.249390453569
 20
1473.908701713422
 30
0.0
  0
VERTEX
  5
1E0
  8
FISHER___PAYKEL
 62
     7
 10
1190.249390453569
 20
1420.406400817366
 30
0.0
 42
-0.4147058823526125
  0
VERTEX
  5
1E1
  8
FISHER___PAYKEL
 62
     7
 10
1185.751471843359
 20
1415.908482207152
 30
0.0
  0
VERTEX
  5
1E2
  8
FISHER___PAYKEL
 62
     7
 10
1153.750985793762
 20
1415.908482207152
 30
0.0
 42
-0.4147058823525864
  0
VERTEX
  5
1E3
  8
FISHER___PAYKEL
 62
     7
 10
1149.253067183552
 20
1420.406400817366
 30
0.0
  0
VERTEX
  5
1E4
  8
FISHER___PAYKEL
 62
     7
 10
1149.253067183552
 20
1473.908701713422
 30
0.0
  0
SEQEND
  5
1E5
  8
FISHER___PAYKEL
 62
     7
  0
POLYLINE
  5
1E6
  8
FISHER___PAYKEL
 62
     7
 66
     1
 10
0.0
 20
0.0
 30
0.0
  0
VERTEX
  5
1E7
  8
FISHER___PAYKEL
 62
     7
 10
1139.750993633275
 20
1473.908701713422
 30
0.0
  0
VERTEX
  5
1E8
  8
FISHER___PAYKEL
 62
     7
 10
1139.750993633275
 20
1391.908999614785
 30
0.0
 42
0.4143518905239125
  0
VERTEX
  5
1E9
  8
FISHER___PAYKEL
 62
     7
 10
1147.751997090497
 20
1383.907996157562
 30
0.0
  0
VERTEX
  5
1EA
  8
FISHER___PAYKEL
 62
     7
 10
1191.750460546623
 20
1383.907996157562
 30
0.0
 42
0.4143518905236378
  0
VERTEX
  5
1EB
  8
FISHER___PAYKEL
 62
     7
 10
1199.75146400385
 20
1391.908999614785
 30
0.0
  0
VERTEX
  5
1EC
  8
FISHER___PAYKEL
 62
     7
 10
1199.751464003849
 20
1473.908701713422
 30
0.0
  0
SEQEND
  5
1ED
  8
FISHER___PAYKEL
 62
     7
  0
POLYLINE
  5
1EE
  8
FISHER___PAYKEL
 62
     7
 66
     1
 10
0.0
 20
0.0
 30
0.0
 70
     1
  0
VERTEX
  5
1EF
  8
FISHER___PAYKEL
 62
     7
 10
1094.999349296143
 20
1514.409019213555
 30
0.0
  0
VERTEX
  5
1F0
  8
FISHER___PAYKEL
 62
     7
 10
1094.999349296143
 20
1473.910112825142
 30
0.0
  0
VERTEX
  5
1F1
  8
FISHER___PAYKEL
 62
     7
 10
1244.503108340977
 20
1473.910112825142
 30
0.0
  0
VERTEX
  5
1F2
  8
FISHER___PAYKEL
 62
     7
 10
1244.503108340978
 20
1514.409019213555
 30
0.0
 42
0.4143343049659426
  0
VERTEX
  5
1F3
  8
FISHER___PAYKEL
 62
     7
 10
1236.999521765352
 20
1521.905550230578
 30
0.0
  0
VERTEX
  5
1F4
  8
FISHER___PAYKEL
 62
     7
 10
1102.502935871769
 20
1521.905550230578
 30
0.0
 42
0.4143343049660467
  0
SEQEND
  5
1F5
  8
FISHER___PAYKEL
 62
     7
  0
LINE
  5
1F6
  8
FISHER___PAYKEL
 62
     5
 10
3715.204595372378
 20
345.3078660217016
 30
0.0
 11
0.0010347906966217
 21
345.3078660217016
 31
0.0
  0
LINE
  5
1F7
  8
FISHER___PAYKEL
 62
   168
 10
127.0010347906975
 20
40.01351957637189
 30
0.0
 11
127.0010347906975
 21
0.0120473541496722
 31
0.0
  0
LINE
  5
1F8
  8
FISHER___PAYKEL
 62
   168
 10
254.0010347906966
 20
40.01351957637189
 30
0.0
 11
254.0010347906966
 21
0.0120473541496722
 31
0.0
  0
LINE
  5
1F9
  8
FISHER___PAYKEL
 62
   168
 10
508.0010347906966
 20
40.01351957637189
 30
0.0
 11
508.0010347906966
 21
0.0120473541496722
 31
0.0
  0
POLYLINE
  5
1FA
  8
FISHER___PAYKEL
 62
   168
 66
     1
 10
0.0
 20
0.0
 30
0.0
 70
     1
  0
VERTEX
  5
1FB
  8
FISHER___PAYKEL
 62
   168
 10
-0.0003763204147162
 20
0.0131056874829483
 30
0.0
  0
VERTEX
  5
1FC
  8
FISHER___PAYKEL
 62
   168
 10
507.9996236795871
 20
0.0131056874829483
 30
0.0
  0
VERTEX
  5
1FD
  8
FISHER___PAYKEL
 62
   168
 10
507.9996236795871
 20
30.01332790970582
 30
0.0
  0
VERTEX
  5
1FE
  8
FISHER___PAYKEL
 62
   168
 10
-0.0003763204147162
 20
30.01332790970582
 30
0.0
  0
SEQEND
  5
1FF
  8
FISHER___PAYKEL
 62
   168
  0
POLYLINE
  5
200
  8
FISHER___PAYKEL
 62
   168
 66
     1
 10
0.0
 20
0.0
 30
0.0
 70
     1
  0
VERTEX
  5
201
  8
FISHER___PAYKEL
 62
   168
 10
253.9996236795853
 20
0.0131056874829483
 30
0.0
  0
VERTEX
  5
202
  8
FISHER___PAYKEL
 62
   168
 10
507.9996236795871
 20
0.0131056874829483
 30
0.0
  0
VERTEX
  5
203
  8
FISHER___PAYKEL
 62
   168
 10
507.9996236795871
 20
15.01321679859439
 30
0.0
  0
VERTEX
  5
204
  8
FISHER___PAYKEL
 62
   168
 10
253.9996236795853
 20
15.01321679859439
 30
0.0
  0
SEQEND
  5
205
  8
FISHER___PAYKEL
 62
   168
  0
POLYLINE
  5
206
  8
FISHER___PAYKEL
 62
   168
 66
     1
 10
0.0
 20
0.0
 30
0.0
 70
     1
  0
VERTEX
  5
207
  8
FISHER___PAYKEL
 62
   168
 10
126.9996236795862
 20
15.01321679859439
 30
0.0
  0
VERTEX
  5
208
  8
FISHER___PAYKEL
 62
   168
 10
253.9996236795853
 20
15.01321679859439
 30
0.0
  0
VERTEX
  5
209
  8
FISHER___PAYKEL
 62
   168
 10
253.9996236795853
 20
30.01332790970582
 30
0.0
  0
VERTEX
  5
20A
  8
FISHER___PAYKEL
 62
   168
 10
126.9996236795862
 20
30.01332790970582
 30
0.0
  0
SEQEND
  5
20B
  8
FISHER___PAYKEL
 62
   168
  0
POLYLINE
  5
20C
  8
FISHER___PAYKEL
 62
   168
 66
     1
 10
0.0
 20
0.0
 30
0.0
 70
     1
  0
VERTEX
  5
20D
  8
FISHER___PAYKEL
 62
   168
 10
-0.0003763204147162
 20
0.0131056874829483
 30
0.0
  0
VERTEX
  5
20E
  8
FISHER___PAYKEL
 62
   168
 10
126.9996236795862
 20
0.0131056874829483
 30
0.0
  0
VERTEX
  5
20F
  8
FISHER___PAYKEL
 62
   168
 10
126.9996236795862
 20
15.01321679859439
 30
0.0
  0
VERTEX
  5
210
  8
FISHER___PAYKEL
 62
   168
 10
-0.0003763204147162
 20
15.01321679859439
 30
0.0
  0
SEQEND
  5
211
  8
FISHER___PAYKEL
 62
   168
  0
LINE
  5
212
  8
FISHER___PAYKEL
 62
   168
 10
0.0010347906966217
 20
40.01351957637189
 30
0.0
 11
0.0010347906966217
 21
0.0120473541496722
 31
0.0
  0
POLYLINE
  5
213
  8
FISHER___PAYKEL
 62
     7
 66
     1
 10
0.0
 20
0.0
 30
0.0
 70
     1
  0
VERTEX
  5
214
  8
FISHER___PAYKEL
 62
     7
 10
578.90795701292
 20
1.714200131927555
 30
0.0
  0
VERTEX
  5
215
  8
FISHER___PAYKEL
 62
     7
 10
579.5288459018086
 20
2.536172354149609
 30
0.0
 42
0.1654739674139542
  0
VERTEX
  5
216
  8
FISHER___PAYKEL
 62
     7
 10
583.4411514573641
 20
1.121533465260212
 30
0.0
  0
VERTEX
  5
217
  8
FISHER___PAYKEL
 62
     7
 10
583.578420210416
 20
1.123878821671617
 30
0.0
  0
VERTEX
  5
218
  8
FISHER___PAYKEL
 62
     7
 10
583.7136361171949
 20
1.130870535301454
 30
0.0
  0
VERTEX
  5
219
  8
FISHER___PAYKEL
 62
     7
 10
583.7804270177432
 20
1.136087984383728
 30
0.0
  0
VERTEX
  5
21A
  8
FISHER___PAYKEL
 62
     7
 10
583.8466480241366
 20
1.142442072743144
 30
0.0
  0
VERTEX
  5
21B
  8
FISHER___PAYKEL
 62
     7
 10
583.9122802421796
 20
1.14992448370388
 30
0.0
  0
VERTEX
  5
21C
  8
FISHER___PAYKEL
 62
     7
 10
583.9773047776766
 20
1.158526900590114
 30
0.0
  0
VERTEX
  5
21D
  8
FISHER___PAYKEL
 62
     7
 10
584.0417027364321
 20
1.168241006726022
 30
0.0
  0
VERTEX
  5
21E
  8
FISHER___PAYKEL
 62
     7
 10
584.1054552242504
 20
1.179058485435785
 30
0.0
  0
VERTEX
  5
21F
  8
FISHER___PAYKEL
 62
     7
 10
584.1685433469362
 20
1.190971020043579
 30
0.0
  0
VERTEX
  5
220
  8
FISHER___PAYKEL
 62
     7
 10
584.2309482102937
 20
1.203970293873583
 30
0.0
  0
VERTEX
  5
221
  8
FISHER___PAYKEL
 62
     7
 10
584.2926509201275
 20
1.218047990249974
 30
0.0
  0
VERTEX
  5
222
  8
FISHER___PAYKEL
 62
     7
 10
584.353632582242
 20
1.233195792496931
 30
0.0
  0
VERTEX
  5
223
  8
FISHER___PAYKEL
 62
     7
 10
584.4138743024415
 20
1.249405383938632
 30
0.0
  0
VERTEX
  5
224
  8
FISHER___PAYKEL
 62
     7
 10
584.4733571865306
 20
1.266668447899254
 30
0.0
  0
VERTEX
  5
225
  8
FISHER___PAYKEL
 62
     7
 10
584.5320623403138
 20
1.284976667702976
 30
0.0
  0
VERTEX
  5
226
  8
FISHER___PAYKEL
 62
     7
 10
584.5899708695954
 20
1.304321726673976
 30
0.0
  0
VERTEX
  5
227
  8
FISHER___PAYKEL
 62
     7
 10
584.6470638801799
 20
1.324695308136431
 30
0.0
  0
VERTEX
  5
228
  8
FISHER___PAYKEL
 62
     7
 10
584.7033224778717
 20
1.346089095414519
 30
0.0
  0
VERTEX
  5
229
  8
FISHER___PAYKEL
 62
     7
 10
584.7587277684752
 20
1.36849477183242
 30
0.0
  0
VERTEX
  5
22A
  8
FISHER___PAYKEL
 62
     7
 10
584.8132608577951
 20
1.39190402071431
 30
0.0
  0
VERTEX
  5
22B
  8
FISHER___PAYKEL
 62
     7
 10
584.8669028516356
 20
1.416308525384367
 30
0.0
  0
VERTEX
  5
22C
  8
FISHER___PAYKEL
 62
     7
 10
584.9196348558013
 20
1.441699969166771
 30
0.0
  0
VERTEX
  5
22D
  8
FISHER___PAYKEL
 62
     7
 10
584.9714379760966
 20
1.468070035385698
 30
0.0
  0
VERTEX
  5
22E
  8
FISHER___PAYKEL
 62
     7
 10
585.0222933183256
 20
1.495410407365326
 30
0.0
  0
VERTEX
  5
22F
  8
FISHER___PAYKEL
 62
     7
 10
585.0721819882933
 20
1.523712768429835
 30
0.0
  0
VERTEX
  5
230
  8
FISHER___PAYKEL
 62
     7
 10
585.1210850918038
 20
1.5529688019034
 30
0.0
  0
VERTEX
  5
231
  8
FISHER___PAYKEL
 62
     7
 10
585.1689837346617
 20
1.583170191110202
 30
0.0
  0
VERTEX
  5
232
  8
FISHER___PAYKEL
 62
     7
 10
585.2158590226712
 20
1.614308619374417
 30
0.0
  0
VERTEX
  5
233
  8
FISHER___PAYKEL
 62
     7
 10
585.2616920616371
 20
1.646375770020224
 30
0.0
  0
VERTEX
  5
234
  8
FISHER___PAYKEL
 62
     7
 10
585.3064639573636
 20
1.679363326371801
 30
0.0
  0
VERTEX
  5
235
  8
FISHER___PAYKEL
 62
     7
 10
585.3501558156552
 20
1.713262971753325
 30
0.0
  0
VERTEX
  5
236
  8
FISHER___PAYKEL
 62
     7
 10
585.3927487423164
 20
1.748066389488975
 30
0.0
  0
VERTEX
  5
237
  8
FISHER___PAYKEL
 62
     7
 10
585.4342238431515
 20
1.783765262902928
 30
0.0
  0
VERTEX
  5
238
  8
FISHER___PAYKEL
 62
     7
 10
585.474562223965
 20
1.820351275319363
 30
0.0
  0
VERTEX
  5
239
  8
FISHER___PAYKEL
 62
     7
 10
585.5137449905615
 20
1.857816110062458
 30
0.0
  0
VERTEX
  5
23A
  8
FISHER___PAYKEL
 62
     7
 10
585.5517532487453
 20
1.896151450456391
 30
0.0
  0
VERTEX
  5
23B
  8
FISHER___PAYKEL
 62
     7
 10
585.5885681043208
 20
1.935348979825339
 30
0.0
  0
VERTEX
  5
23C
  8
FISHER___PAYKEL
 62
     7
 10
585.6241706630926
 20
1.975400381493481
 30
0.0
  0
VERTEX
  5
23D
  8
FISHER___PAYKEL
 62
     7
 10
585.6585420308651
 20
2.016297338784995
 30
0.0
  0
VERTEX
  5
23E
  8
FISHER___PAYKEL
 62
     7
 10
585.6916633134426
 20
2.058031535024059
 30
0.0
  0
VERTEX
  5
23F
  8
FISHER___PAYKEL
 62
     7
 10
585.7235156166296
 20
2.100594653534849
 30
0.0
  0
VERTEX
  5
240
  8
FISHER___PAYKEL
 62
     7
 10
585.7540800462307
 20
2.143978377641546
 30
0.0
  0
VERTEX
  5
241
  8
FISHER___PAYKEL
 62
     7
 10
585.78333770805
 20
2.188174390668327
 30
0.0
  0
VERTEX
  5
242
  8
FISHER___PAYKEL
 62
     7
 10
585.8112697078923
 20
2.233174375939369
 30
0.0
  0
VERTEX
  5
243
  8
FISHER___PAYKEL
 62
     7
 10
585.837857151562
 20
2.27897001677885
 30
0.0
  0
VERTEX
  5
244
  8
FISHER___PAYKEL
 62
     7
 10
585.8630811448634
 20
2.32555299651095
 30
0.0
  0
VERTEX
  5
245
  8
FISHER___PAYKEL
 62
     7
 10
585.8869227936009
 20
2.372914998459846
 30
0.0
  0
VERTEX
  5
246
  8
FISHER___PAYKEL
 62
     7
 10
585.9093632035792
 20
2.421047705949715
 30
0.0
  0
VERTEX
  5
247
  8
FISHER___PAYKEL
 62
     7
 10
585.9303834806025
 20
2.469942802304736
 30
0.0
  0
VERTEX
  5
248
  8
FISHER___PAYKEL
 62
     7
 10
585.9499647304752
 20
2.519591970849086
 30
0.0
  0
VERTEX
  5
249
  8
FISHER___PAYKEL
 62
     7
 10
585.968088059002
 20
2.569986894906944
 30
0.0
  0
VERTEX
  5
24A
  8
FISHER___PAYKEL
 62
     7
 10
585.9847345719872
 20
2.621119257802488
 30
0.0
  0
VERTEX
  5
24B
  8
FISHER___PAYKEL
 62
     7
 10
585.9998853752352
 20
2.672980742859896
 30
0.0
  0
VERTEX
  5
24C
  8
FISHER___PAYKEL
 62
     7
 10
586.0135215745507
 20
2.725563033403345
 30
0.0
  0
VERTEX
  5
24D
  8
FISHER___PAYKEL
 62
     7
 10
586.025624275738
 20
2.778857812757014
 30
0.0
  0
VERTEX
  5
24E
  8
FISHER___PAYKEL
 62
     7
 10
586.0361745846012
 20
2.832856764245081
 30
0.0
  0
VERTEX
  5
24F
  8
FISHER___PAYKEL
 62
     7
 10
586.0451536069452
 20
2.887551571191724
 30
0.0
  0
VERTEX
  5
250
  8
FISHER___PAYKEL
 62
     7
 10
586.0525424485742
 20
2.94293391692112
 30
0.0
  0
VERTEX
  5
251
  8
FISHER___PAYKEL
 62
     7
 10
586.0583222152927
 20
2.998995484757448
 30
0.0
  0
VERTEX
  5
252
  8
FISHER___PAYKEL
 62
     7
 10
586.0624740129051
 20
3.055727958024886
 30
0.0
  0
VERTEX
  5
253
  8
FISHER___PAYKEL
 62
     7
 10
586.0649789472161
 20
3.113123020047611
 30
0.0
  0
VERTEX
  5
254
  8
FISHER___PAYKEL
 62
     7
 10
586.0658181240299
 20
3.171172354149803
 30
0.0
  0
VERTEX
  5
255
  8
FISHER___PAYKEL
 62
     7
 10
586.0658181240299
 20
3.217033465260556
 30
0.0
  0
VERTEX
  5
256
  8
FISHER___PAYKEL
 62
     7
 10
586.0648253578614
 20
3.275815716512639
 30
0.0
  0
VERTEX
  5
257
  8
FISHER___PAYKEL
 62
     7
 10
586.0618654152556
 20
3.333442272803173
 30
0.0
  0
VERTEX
  5
258
  8
FISHER___PAYKEL
 62
     7
 10
586.0596563571166
 20
3.361827590353944
 30
0.0
  0
VERTEX
  5
259
  8
FISHER___PAYKEL
 62
     7
 10
586.0569658300617
 20
3.38993049418363
 30
0.0
  0
VERTEX
  5
25A
  8
FISHER___PAYKEL
 62
     7
 10
586.0537972758218
 20
3.417753154298666
 30
0.0
  0
VERTEX
  5
25B
  8
FISHER___PAYKEL
 62
     7
 10
586.0501541361284
 20
3.445297740705485
 30
0.0
  0
VERTEX
  5
25C
  8
FISHER___PAYKEL
 62
     7
 10
586.0460398527125
 20
3.472566423410521
 30
0.0
  0
VERTEX
  5
25D
  8
FISHER___PAYKEL
 62
     7
 10
586.041457867305
 20
3.499561372420209
 30
0.0
  0
VERTEX
  5
25E
  8
FISHER___PAYKEL
 62
     7
 10
586.0364116216373
 20
3.526284757740982
 30
0.0
  0
VERTEX
  5
25F
  8
FISHER___PAYKEL
 62
     7
 10
586.0309045574405
 20
3.552738749379276
 30
0.0
  0
VERTEX
  5
260
  8
FISHER___PAYKEL
 62
     7
 10
586.0249401164457
 20
3.578925517341523
 30
0.0
  0
VERTEX
  5
261
  8
FISHER___PAYKEL
 62
     7
 10
586.018521740384
 20
3.604847231634158
 30
0.0
  0
VERTEX
  5
262
  8
FISHER___PAYKEL
 62
     7
 10
586.0116528709866
 20
3.630506062263616
 30
0.0
  0
VERTEX
  5
263
  8
FISHER___PAYKEL
 62
     7
 10
586.0043369499847
 20
3.65590417923633
 30
0.0
  0
VERTEX
  5
264
  8
FISHER___PAYKEL
 62
     7
 10
585.9965774191094
 20
3.681043752558735
 30
0.0
  0
VERTEX
  5
265
  8
FISHER___PAYKEL
 62
     7
 10
585.9883777200916
 20
3.705926952237264
 30
0.0
  0
VERTEX
  5
266
  8
FISHER___PAYKEL
 62
     7
 10
585.9797412946627
 20
3.730555948278352
 30
0.0
  0
VERTEX
  5
267
  8
FISHER___PAYKEL
 62
     7
 10
585.9706715845537
 20
3.754932910688432
 30
0.0
  0
VERTEX
  5
268
  8
FISHER___PAYKEL
 62
     7
 10
585.9611720314958
 20
3.77906000947394
 30
0.0
  0
VERTEX
  5
269
  8
FISHER___PAYKEL
 62
     7
 10
585.95124607722
 20
3.802939414641309
 30
0.0
  0
VERTEX
  5
26A
  8
FISHER___PAYKEL
 62
     7
 10
585.9408971634577
 20
3.826573296196973
 30
0.0
  0
VERTEX
  5
26B
  8
FISHER___PAYKEL
 62
     7
 10
585.93012873194
 20
3.849963824147366
 30
0.0
  0
VERTEX
  5
26C
  8
FISHER___PAYKEL
 62
     7
 10
585.9189442243978
 20
3.873113168498923
 30
0.0
  0
VERTEX
  5
26D
  8
FISHER___PAYKEL
 62
     7
 10
585.9073470825624
 20
3.896023499258078
 30
0.0
  0
VERTEX
  5
26E
  8
FISHER___PAYKEL
 62
     7
 10
585.8953407481648
 20
3.918696986431264
 30
0.0
  0
VERTEX
  5
26F
  8
FISHER___PAYKEL
 62
     7
 10
585.8829286629364
 20
3.941135800024916
 30
0.0
  0
VERTEX
  5
270
  8
FISHER___PAYKEL
 62
     7
 10
585.8701142686081
 20
3.963342110045468
 30
0.0
  0
VERTEX
  5
271
  8
FISHER___PAYKEL
 62
     7
 10
585.8569010069111
 20
3.985318086499354
 30
0.0
  0
VERTEX
  5
272
  8
FISHER___PAYKEL
 62
     7
 10
585.8432923195764
 20
4.007065899393008
 30
0.0
  0
VERTEX
  5
273
  8
FISHER___PAYKEL
 62
     7
 10
585.8292916483355
 20
4.028587718732865
 30
0.0
  0
VERTEX
  5
274
  8
FISHER___PAYKEL
 62
     7
 10
585.8001281210587
 20
4.070962056776922
 30
0.0
  0
VERTEX
  5
275
  8
FISHER___PAYKEL
 62
     7
 10
585.7694379589298
 20
4.112458460682999
 30
0.0
  0
VERTEX
  5
276
  8
FISHER___PAYKEL
 62
     7
 10
585.7372486957979
 20
4.153094290502567
 30
0.0
  0
VERTEX
  5
277
  8
FISHER___PAYKEL
 62
     7
 10
585.7035878655121
 20
4.1928869062871
 30
0.0
  0
VERTEX
  5
278
  8
FISHER___PAYKEL
 62
     7
 10
585.6684830019213
 20
4.231853668088071
 30
0.0
  0
VERTEX
  5
279
  8
FISHER___PAYKEL
 62
     7
 10
585.631961638875
 20
4.270011935956954
 30
0.0
  0
VERTEX
  5
27A
  8
FISHER___PAYKEL
 62
     7
 10
585.5940513102219
 20
4.30737906994522
 30
0.0
  0
VERTEX
  5
27B
  8
FISHER___PAYKEL
 62
     7
 10
585.5547795498112
 20
4.343972430104344
 30
0.0
  0
VERTEX
  5
27C
  8
FISHER___PAYKEL
 62
     7
 10
585.514173891492
 20
4.379809376485798
 30
0.0
  0
VERTEX
  5
27D
  8
FISHER___PAYKEL
 62
     7
 10
585.4722618691133
 20
4.414907269141055
 30
0.0
  0
VERTEX
  5
27E
  8
FISHER___PAYKEL
 62
     7
 10
585.4290710165242
 20
4.449283468121587
 30
0.0
  0
VERTEX
  5
27F
  8
FISHER___PAYKEL
 62
     7
 10
585.3846288675738
 20
4.48295533347887
 30
0.0
  0
VERTEX
  5
280
  8
FISHER___PAYKEL
 62
     7
 10
585.3389629561113
 20
4.515940225264375
 30
0.0
  0
VERTEX
  5
281
  8
FISHER___PAYKEL
 62
     7
 10
585.2921008159856
 20
4.548255503529574
 30
0.0
  0
VERTEX
  5
282
  8
FISHER___PAYKEL
 62
     7
 10
585.244069981046
 20
4.579918528325941
 30
0.0
  0
VERTEX
  5
283
  8
FISHER___PAYKEL
 62
     7
 10
585.1948979851412
 20
4.61094665970495
 30
0.0
  0
VERTEX
  5
284
  8
FISHER___PAYKEL
 62
     7
 10
585.1446123621206
 20
4.641357257718074
 30
0.0
  0
VERTEX
  5
285
  8
FISHER___PAYKEL
 62
     7
 10
585.0932406458332
 20
4.671167682416784
 30
0.0
  0
VERTEX
  5
286
  8
FISHER___PAYKEL
 62
     7
 10
584.9873490688544
 20
4.729057452076859
 30
0.0
  0
VERTEX
  5
287
  8
FISHER___PAYKEL
 62
     7
 10
584.8774435249973
 20
4.784754849096958
 30
0.0
  0
VERTEX
  5
288
  8
FISHER___PAYKEL
 62
     7
 10
584.7637442850546
 20
4.838398753888868
 30
0.0
  0
VERTEX
  5
289
  8
FISHER___PAYKEL
 62
     7
 10
584.6464716198188
 20
4.89012804686437
 30
0.0
  0
VERTEX
  5
28A
  8
FISHER___PAYKEL
 62
     7
 10
584.5258458000828
 20
4.94008160843525
 30
0.0
  0
VERTEX
  5
28B
  8
FISHER___PAYKEL
 62
     7
 10
584.4020870966392
 20
4.988398319013291
 30
0.0
  0
VERTEX
  5
28C
  8
FISHER___PAYKEL
 62
     7
 10
584.2754157802805
 20
5.035217059010279
 30
0.0
  0
VERTEX
  5
28D
  8
FISHER___PAYKEL
 62
     7
 10
584.0142163919885
 20
5.124916148908227
 30
0.0
  0
VERTEX
  5
28E
  8
FISHER___PAYKEL
 62
     7
 10
583.7440098015479
 20
5.210289921423367
 30
0.0
  0
VERTEX
  5
28F
  8
FISHER___PAYKEL
 62
     7
 10
583.1836236795864
 20
5.372505687482317
 30
0.0
  0
VERTEX
  5
290
  8
FISHER___PAYKEL
 62
     7
 10
582.5134768154371
 20
5.566685049462002
 30
0.0
  0
VERTEX
  5
291
  8
FISHER___PAYKEL
 62
     7
 10
582.1795996927699
 20
5.669557323225217
 30
0.0
  0
VERTEX
  5
292
  8
FISHER___PAYKEL
 62
     7
 10
581.8507300163918
 20
5.778971833316518
 30
0.0
  0
VERTEX
  5
293
  8
FISHER___PAYKEL
 62
     7
 10
581.6891596674402
 20
5.836762233503757
 30
0.0
  0
VERTEX
  5
294
  8
FISHER___PAYKEL
 62
     7
 10
581.5300252163158
 20
5.896943960595283
 30
0.0
  0
VERTEX
  5
295
  8
FISHER___PAYKEL
 62
     7
 10
581.3737213417703
 20
5.959768937198519
 30
0.0
  0
VERTEX
  5
296
  8
FISHER___PAYKEL
 62
     7
 10
581.220642722555
 20
6.025489085920888
 30
0.0
  0
VERTEX
  5
297
  8
FISHER___PAYKEL
 62
     7
 10
581.0711840374217
 20
6.094356329369813
 30
0.0
  0
VERTEX
  5
298
  8
FISHER___PAYKEL
 62
     7
 10
580.9257399651224
 20
6.166622590152714
 30
0.0
  0
VERTEX
  5
299
  8
FISHER___PAYKEL
 62
     7
 10
580.7847051844082
 20
6.242539790877014
 30
0.0
  0
VERTEX
  5
29A
  8
FISHER___PAYKEL
 62
     7
 10
580.7159646155053
 20
6.281946219532008
 30
0.0
  0
VERTEX
  5
29B
  8
FISHER___PAYKEL
 62
     7
 10
580.6484743740308
 20
6.322359854150136
 30
0.0
  0
VERTEX
  5
29C
  8
FISHER___PAYKEL
 62
     7
 10
580.5822837948283
 20
6.363812185057324
 30
0.0
  0
VERTEX
  5
29D
  8
FISHER___PAYKEL
 62
     7
 10
580.517442212742
 20
6.406334702579501
 30
0.0
  0
VERTEX
  5
29E
  8
FISHER___PAYKEL
 62
     7
 10
580.4539989626157
 20
6.449958897042595
 30
0.0
  0
VERTEX
  5
29F
  8
FISHER___PAYKEL
 62
     7
 10
580.3920033792934
 20
6.494716258772534
 30
0.0
  0
VERTEX
  5
2A0
  8
FISHER___PAYKEL
 62
     7
 10
580.3315047976191
 20
6.540638278095244
 30
0.0
  0
VERTEX
  5
2A1
  8
FISHER___PAYKEL
 62
     7
 10
580.2725525524367
 20
6.587756445336653
 30
0.0
  0
VERTEX
  5
2A2
  8
FISHER___PAYKEL
 62
     7
 10
580.21519597859
 20
6.636102250822691
 30
0.0
  0
VERTEX
  5
2A3
  8
FISHER___PAYKEL
 62
     7
 10
580.1594844109233
 20
6.685707184879284
 30
0.0
  0
VERTEX
  5
2A4
  8
FISHER___PAYKEL
 62
     7
 10
580.1054671842803
 20
6.73660273783236
 30
0.0
  0
VERTEX
  5
2A5
  8
FISHER___PAYKEL
 62
     7
 10
580.0531936335049
 20
6.788820400007848
 30
0.0
  0
VERTEX
  5
2A6
  8
FISHER___PAYKEL
 62
     7
 10
580.0027130934413
 20
6.842391661731673
 30
0.0
  0
VERTEX
  5
2A7
  8
FISHER___PAYKEL
 62
     7
 10
579.9540748989332
 20
6.897348013329766
 30
0.0
  0
VERTEX
  5
2A8
  8
FISHER___PAYKEL
 62
     7
 10
579.9073283848247
 20
6.953720945128053
 30
0.0
  0
VERTEX
  5
2A9
  8
FISHER___PAYKEL
 62
     7
 10
579.8625228859598
 20
7.011541947452461
 30
0.0
  0
VERTEX
  5
2AA
  8
FISHER___PAYKEL
 62
     7
 10
579.8197077371824
 20
7.070842510628919
 30
0.0
  0
VERTEX
  5
2AB
  8
FISHER___PAYKEL
 62
     7
 10
579.7990619612153
 20
7.10105746826352
 30
0.0
  0
VERTEX
  5
2AC
  8
FISHER___PAYKEL
 62
     7
 10
579.7789322733364
 20
7.131654124983356
 30
0.0
  0
VERTEX
  5
2AD
  8
FISHER___PAYKEL
 62
     7
 10
579.7593248404013
 20
7.162636417079169
 30
0.0
  0
VERTEX
  5
2AE
  8
FISHER___PAYKEL
 62
     7
 10
579.7402458292656
 20
7.194008280841699
 30
0.0
  0
VERTEX
  5
2AF
  8
FISHER___PAYKEL
 62
     7
 10
579.7217014067849
 20
7.225773652561687
 30
0.0
  0
VERTEX
  5
2B0
  8
FISHER___PAYKEL
 62
     7
 10
579.7036977398145
 20
7.257936468529874
 30
0.0
  0
VERTEX
  5
2B1
  8
FISHER___PAYKEL
 62
     7
 10
579.68624099521
 20
7.290500665037001
 30
0.0
  0
VERTEX
  5
2B2
  8
FISHER___PAYKEL
 62
     7
 10
579.6693373398266
 20
7.323470178373809
 30
0.0
  0
VERTEX
  5
2B3
  8
FISHER___PAYKEL
 62
     7
 10
579.6529929405201
 20
7.356848944831039
 30
0.0
  0
VERTEX
  5
2B4
  8
FISHER___PAYKEL
 62
     7
 10
579.6372139641459
 20
7.390640900699434
 30
0.0
  0
VERTEX
  5
2B5
  8
FISHER___PAYKEL
 62
     7
 10
579.6220065775593
 20
7.424849982269732
 30
0.0
  0
VERTEX
  5
2B6
  8
FISHER___PAYKEL
 62
     7
 10
579.6073769476163
 20
7.459480125832675
 30
0.0
  0
VERTEX
  5
2B7
  8
FISHER___PAYKEL
 62
     7
 10
579.593331241172
 20
7.494535267679004
 30
0.0
  0
VERTEX
  5
2B8
  8
FISHER___PAYKEL
 62
     7
 10
579.579875625082
 20
7.53001934409946
 30
0.0
  0
VERTEX
  5
2B9
  8
FISHER___PAYKEL
 62
     7
 10
579.5670162662018
 20
7.565936291384785
 30
0.0
  0
VERTEX
  5
2BA
  8
FISHER___PAYKEL
 62
     7
 10
579.5547593313868
 20
7.602290045825718
 30
0.0
  0
VERTEX
  5
2BB
  8
FISHER___PAYKEL
 62
     7
 10
579.5431109874926
 20
7.639084543713001
 30
0.0
  0
VERTEX
  5
2BC
  8
FISHER___PAYKEL
 62
     7
 10
579.5320774013746
 20
7.676323721337376
 30
0.0
  0
VERTEX
  5
2BD
  8
FISHER___PAYKEL
 62
     7
 10
579.5216647398884
 20
7.714011514989583
 30
0.0
  0
VERTEX
  5
2BE
  8
FISHER___PAYKEL
 62
     7
 10
579.5118791698894
 20
7.752151860960361
 30
0.0
  0
VERTEX
  5
2BF
  8
FISHER___PAYKEL
 62
     7
 10
579.5027268582332
 20
7.790748695540454
 30
0.0
  0
VERTEX
  5
2C0
  8
FISHER___PAYKEL
 62
     7
 10
579.4942139717753
 20
7.829805955020602
 30
0.0
  0
VERTEX
  5
2C1
  8
FISHER___PAYKEL
 62
     7
 10
579.4863466773711
 20
7.869327575691544
 30
0.0
  0
VERTEX
  5
2C2
  8
FISHER___PAYKEL
 62
     7
 10
579.4791311418761
 20
7.909317493844025
 30
0.0
  0
VERTEX
  5
2C3
  8
FISHER___PAYKEL
 62
     7
 10
579.4725735321458
 20
7.949779645768783
 30
0.0
  0
VERTEX
  5
2C4
  8
FISHER___PAYKEL
 62
     7
 10
579.4666800150356
 20
7.99071796775656
 30
0.0
  0
VERTEX
  5
2C5
  8
FISHER___PAYKEL
 62
     7
 10
579.4569099260981
 20
8.074038867084134
 30
0.0
  0
VERTEX
  5
2C6
  8
FISHER___PAYKEL
 62
     7
 10
579.4498702099073
 20
8.159311682152675
 30
0.0
  0
VERTEX
  5
2C7
  8
FISHER___PAYKEL
 62
     7
 10
579.4456102013073
 20
8.246567903288108
 30
0.0
  0
VERTEX
  5
2C8
  8
FISHER___PAYKEL
 62
     7
 10
579.444179235142
 20
8.335839020816366
 30
0.0
  0
VERTEX
  5
2C9
  8
FISHER___PAYKEL
 62
     7
 10
579.444179235142
 20
8.378172354149228
 30
0.0
  0
VERTEX
  5
2CA
  8
FISHER___PAYKEL
 62
     7
 10
579.4452560966295
 20
8.459009460748046
 30
0.0
  0
VERTEX
  5
2CB
  8
FISHER___PAYKEL
 62
     7
 10
579.4484739773023
 20
8.539121078684142
 30
0.0
  0
VERTEX
  5
2CC
  8
FISHER___PAYKEL
 62
     7
 10
579.4538138214762
 20
8.618489686417192
 30
0.0
  0
VERTEX
  5
2CD
  8
FISHER___PAYKEL
 62
     7
 10
579.4612565734666
 20
8.697097762406871
 30
0.0
  0
VERTEX
  5
2CE
  8
FISHER___PAYKEL
 62
     7
 10
579.470783177589
 20
8.774927785112858
 30
0.0
  0
VERTEX
  5
2CF
  8
FISHER___PAYKEL
 62
     7
 10
579.4823745781595
 20
8.851962232994826
 30
0.0
  0
VERTEX
  5
2D0
  8
FISHER___PAYKEL
 62
     7
 10
579.4960117194931
 20
8.92818358451245
 30
0.0
  0
VERTEX
  5
2D1
  8
FISHER___PAYKEL
 62
     7
 10
579.5116755459057
 20
9.003574318125413
 30
0.0
  0
VERTEX
  5
2D2
  8
FISHER___PAYKEL
 62
     7
 10
579.529347001713
 20
9.078116912293385
 30
0.0
  0
VERTEX
  5
2D3
  8
FISHER___PAYKEL
 62
     7
 10
579.5490070312302
 20
9.151793845476044
 30
0.0
  0
VERTEX
  5
2D4
  8
FISHER___PAYKEL
 62
     7
 10
579.570636578773
 20
9.224587596133066
 30
0.0
  0
VERTEX
  5
2D5
  8
FISHER___PAYKEL
 62
     7
 10
579.5942165886574
 20
9.296480642724127
 30
0.0
  0
VERTEX
  5
2D6
  8
FISHER___PAYKEL
 62
     7
 10
579.6197280051988
 20
9.367455463708904
 30
0.0
  0
VERTEX
  5
2D7
  8
FISHER___PAYKEL
 62
     7
 10
579.6471517727125
 20
9.437494537547074
 30
0.0
  0
VERTEX
  5
2D8
  8
FISHER___PAYKEL
 62
     7
 10
579.6764688355142
 20
9.50658034269831
 30
0.0
  0
VERTEX
  5
2D9
  8
FISHER___PAYKEL
 62
     7
 10
579.7076601379197
 20
9.57469535762229
 30
0.0
  0
VERTEX
  5
2DA
  8
FISHER___PAYKEL
 62
     7
 10
579.7407066242444
 20
9.64182206077869
 30
0.0
  0
VERTEX
  5
2DB
  8
FISHER___PAYKEL
 62
     7
 10
579.7755892388041
 20
9.707942930627187
 30
0.0
  0
VERTEX
  5
2DC
  8
FISHER___PAYKEL
 62
     7
 10
579.8122889259141
 20
9.773040445627455
 30
0.0
  0
VERTEX
  5
2DD
  8
FISHER___PAYKEL
 62
     7
 10
579.8507866298902
 20
9.837097084239172
 30
0.0
  0
VERTEX
  5
2DE
  8
FISHER___PAYKEL
 62
     7
 10
579.8910632950478
 20
9.900095324922013
 30
0.0
  0
VERTEX
  5
2DF
  8
FISHER___PAYKEL
 62
     7
 10
579.9330998657028
 20
9.962017646135656
 30
0.0
  0
VERTEX
  5
2E0
  8
FISHER___PAYKEL
 62
     7
 10
579.9768772861707
 20
10.02284652633977
 30
0.0
  0
VERTEX
  5
2E1
  8
FISHER___PAYKEL
 62
     7
 10
580.0223765007669
 20
10.08256444399405
 30
0.0
  0
VERTEX
  5
2E2
  8
FISHER___PAYKEL
 62
     7
 10
580.0695784538071
 20
10.14115387755815
 30
0.0
  0
VERTEX
  5
2E3
  8
FISHER___PAYKEL
 62
     7
 10
580.118464089607
 20
10.19859730549176
 30
0.0
  0
VERTEX
  5
2E4
  8
FISHER___PAYKEL
 62
     7
 10
580.169014352482
 20
10.25487720625454
 30
0.0
  0
VERTEX
  5
2E5
  8
FISHER___PAYKEL
 62
     7
 10
580.2212101867478
 20
10.30997605830619
 30
0.0
  0
VERTEX
  5
2E6
  8
FISHER___PAYKEL
 62
     7
 10
580.2750325367199
 20
10.36387634010637
 30
0.0
  0
VERTEX
  5
2E7
  8
FISHER___PAYKEL
 62
     7
 10
580.3304623467141
 20
10.41656053011477
 30
0.0
  0
VERTEX
  5
2E8
  8
FISHER___PAYKEL
 62
     7
 10
580.3874805610458
 20
10.46801110679104
 30
0.0
  0
VERTEX
  5
2E9
  8
FISHER___PAYKEL
 62
     7
 10
580.4460681240307
 20
10.51821054859488
 30
0.0
  0
VERTEX
  5
2EA
  8
FISHER___PAYKEL
 62
     7
 10
580.5062059799843
 20
10.56714133398596
 30
0.0
  0
VERTEX
  5
2EB
  8
FISHER___PAYKEL
 62
     7
 10
580.5678750732224
 20
10.61478594142395
 30
0.0
  0
VERTEX
  5
2EC
  8
FISHER___PAYKEL
 62
     7
 10
580.6310563480603
 20
10.66112684936853
 30
0.0
  0
VERTEX
  5
2ED
  8
FISHER___PAYKEL
 62
     7
 10
580.6957307488137
 20
10.70614653627938
 30
0.0
  0
VERTEX
  5
2EE
  8
FISHER___PAYKEL
 62
     7
 10
580.7618792197983
 20
10.74982748061618
 30
0.0
  0
VERTEX
  5
2EF
  8
FISHER___PAYKEL
 62
     7
 10
580.8294827053296
 20
10.79215216083859
 30
0.0
  0
VERTEX
  5
2F0
  8
FISHER___PAYKEL
 62
     7
 10
580.898522149723
 20
10.83310305540629
 30
0.0
  0
VERTEX
  5
2F1
  8
FISHER___PAYKEL
 62
     7
 10
580.9689784972945
 20
10.87266264277897
 30
0.0
  0
VERTEX
  5
2F2
  8
FISHER___PAYKEL
 62
     7
 10
581.0408326923595
 20
10.9108134014163
 30
0.0
  0
VERTEX
  5
2F3
  8
FISHER___PAYKEL
 62
     7
 10
581.1140656792336
 20
10.94753780977795
 30
0.0
  0
VERTEX
  5
2F4
  8
FISHER___PAYKEL
 62
     7
 10
581.1886584022322
 20
10.9828183463236
 30
0.0
  0
VERTEX
  5
2F5
  8
FISHER___PAYKEL
 62
     7
 10
581.2645918056712
 20
11.01663748951293
 30
0.0
  0
VERTEX
  5
2F6
  8
FISHER___PAYKEL
 62
     7
 10
581.341846833866
 20
11.04897771780561
 30
0.0
  0
VERTEX
  5
2F7
  8
FISHER___PAYKEL
 62
     7
 10
581.4204044311323
 20
11.07982150966131
 30
0.0
  0
VERTEX
  5
2F8
  8
FISHER___PAYKEL
 62
     7
 10
581.5002455417857
 20
11.10915134353973
 30
0.0
  0
VERTEX
  5
2F9
  8
FISHER___PAYKEL
 62
     7
 10
581.5813511101418
 20
11.13694969790052
 30
0.0
  0
VERTEX
  5
2FA
  8
FISHER___PAYKEL
 62
     7
 10
581.663702080516
 20
11.16319905120337
 30
0.0
  0
VERTEX
  5
2FB
  8
FISHER___PAYKEL
 62
     7
 10
581.747279397224
 20
11.18788188190795
 30
0.0
  0
VERTEX
  5
2FC
  8
FISHER___PAYKEL
 62
     7
 10
581.8320640045815
 20
11.21098066847394
 30
0.0
  0
VERTEX
  5
2FD
  8
FISHER___PAYKEL
 62
     7
 10
581.918036846904
 20
11.23247788936102
 30
0.0
  0
VERTEX
  5
2FE
  8
FISHER___PAYKEL
 62
     7
 10
582.005178868507
 20
11.25235602302886
 30
0.0
  0
VERTEX
  5
2FF
  8
FISHER___PAYKEL
 62
     7
 10
582.0934710137062
 20
11.27059754793714
 30
0.0
  0
VERTEX
  5
300
  8
FISHER___PAYKEL
 62
     7
 10
582.1828942268172
 20
11.28718494254553
 30
0.0
  0
VERTEX
  5
301
  8
FISHER___PAYKEL
 62
     7
 10
582.2734294521556
 20
11.30210068531371
 30
0.0
  0
VERTEX
  5
302
  8
FISHER___PAYKEL
 62
     7
 10
582.3650576340369
 20
11.31532725470136
 30
0.0
  0
VERTEX
  5
303
  8
FISHER___PAYKEL
 62
     7
 10
582.457759716777
 20
11.32684712916814
 30
0.0
  0
VERTEX
  5
304
  8
FISHER___PAYKEL
 62
     7
 10
582.551516644691
 20
11.33664278717375
 30
0.0
  0
VERTEX
  5
305
  8
FISHER___PAYKEL
 62
     7
 10
582.6463093620948
 20
11.34469670717785
 30
0.0
  0
VERTEX
  5
306
  8
FISHER___PAYKEL
 62
     7
 10
582.742118813304
 20
11.35099136764012
 30
0.0
  0
VERTEX
  5
307
  8
FISHER___PAYKEL
 62
     7
 10
582.8389259426341
 20
11.35550924702024
 30
0.0
  0
VERTEX
  5
308
  8
FISHER___PAYKEL
 62
     7
 10
582.9367116944009
 20
11.35823282377789
 30
0.0
  0
VERTEX
  5
309
  8
FISHER___PAYKEL
 62
     7
 10
583.0354570129196
 20
11.35914457637273
 30
0.0
 42
-0.1397373824314093
  0
VERTEX
  5
30A
  8
FISHER___PAYKEL
 62
     7
 10
586.9019014573635
 20
10.17381124303804
 30
0.0
  0
VERTEX
  5
30B
  8
FISHER___PAYKEL
 62
     7
 10
586.344512568475
 20
9.305977909705232
 30
0.0
 42
0.1435491738059578
  0
VERTEX
  5
30C
  8
FISHER___PAYKEL
 62
     7
 10
582.9895959018089
 20
10.38547790970508
 30
0.0
  0
VERTEX
  5
30D
  8
FISHER___PAYKEL
 62
     7
 10
582.850889897984
 20
10.3831377209369
 30
0.0
  0
VERTEX
  5
30E
  8
FISHER___PAYKEL
 62
     7
 10
582.7152870639181
 20
10.37618218080968
 30
0.0
  0
VERTEX
  5
30F
  8
FISHER___PAYKEL
 62
     7
 10
582.6486759812053
 20
10.37100413500703
 30
0.0
  0
VERTEX
  5
310
  8
FISHER___PAYKEL
 62
     7
 10
582.5828726657248
 20
10.36470882858935
 30
0.0
  0
VERTEX
  5
311
  8
FISHER___PAYKEL
 62
     7
 10
582.5178877757406
 20
10.35730845396488
 30
0.0
  0
VERTEX
  5
312
  8
FISHER___PAYKEL
 62
     7
 10
582.4537319695171
 20
10.34881520354188
 30
0.0
  0
VERTEX
  5
313
  8
FISHER___PAYKEL
 62
     7
 10
582.3904159053184
 20
10.33924126972856
 30
0.0
  0
VERTEX
  5
314
  8
FISHER___PAYKEL
 62
     7
 10
582.3279502414084
 20
10.3285988449332
 30
0.0
  0
VERTEX
  5
315
  8
FISHER___PAYKEL
 62
     7
 10
582.2663456360515
 20
10.31690012156402
 30
0.0
  0
VERTEX
  5
316
  8
FISHER___PAYKEL
 62
     7
 10
582.2056127475119
 20
10.30415729202928
 30
0.0
  0
VERTEX
  5
317
  8
FISHER___PAYKEL
 62
     7
 10
582.1457622340536
 20
10.29038254873721
 30
0.0
  0
VERTEX
  5
318
  8
FISHER___PAYKEL
 62
     7
 10
582.0868047539409
 20
10.27558808409606
 30
0.0
  0
VERTEX
  5
319
  8
FISHER___PAYKEL
 62
     7
 10
582.0287509654378
 20
10.25978609051407
 30
0.0
  0
VERTEX
  5
31A
  8
FISHER___PAYKEL
 62
     7
 10
581.9716115268086
 20
10.24298876039949
 30
0.0
  0
VERTEX
  5
31B
  8
FISHER___PAYKEL
 62
     7
 10
581.9153970963175
 20
10.22520828616057
 30
0.0
  0
VERTEX
  5
31C
  8
FISHER___PAYKEL
 62
     7
 10
581.8601183322287
 20
10.20645686020553
 30
0.0
  0
VERTEX
  5
31D
  8
FISHER___PAYKEL
 62
     7
 10
581.8057858928059
 20
10.18674667494264
 30
0.0
  0
VERTEX
  5
31E
  8
FISHER___PAYKEL
 62
     7
 10
581.7524104363139
 20
10.16608992278012
 30
0.0
  0
VERTEX
  5
31F
  8
FISHER___PAYKEL
 62
     7
 10
581.7000026210164
 20
10.14449879612624
 30
0.0
  0
VERTEX
  5
320
  8
FISHER___PAYKEL
 62
     7
 10
581.6485731051779
 20
10.12198548738922
 30
0.0
  0
VERTEX
  5
321
  8
FISHER___PAYKEL
 62
     7
 10
581.5981325470623
 20
10.09856218897732
 30
0.0
  0
VERTEX
  5
322
  8
FISHER___PAYKEL
 62
     7
 10
581.5486916049338
 20
10.07424109329878
 30
0.0
  0
VERTEX
  5
323
  8
FISHER___PAYKEL
 62
     7
 10
581.5002609370566
 20
10.04903439276184
 30
0.0
  0
VERTEX
  5
324
  8
FISHER___PAYKEL
 62
     7
 10
581.4528512016949
 20
10.02295427977474
 30
0.0
  0
VERTEX
  5
325
  8
FISHER___PAYKEL
 62
     7
 10
581.4064730571127
 20
9.996012946745736
 30
0.0
  0
VERTEX
  5
326
  8
FISHER___PAYKEL
 62
     7
 10
581.3611371615743
 20
9.968222586083062
 30
0.0
  0
VERTEX
  5
327
  8
FISHER___PAYKEL
 62
     7
 10
581.3168541733439
 20
9.939595390194967
 30
0.0
  0
VERTEX
  5
328
  8
FISHER___PAYKEL
 62
     7
 10
581.2736347506857
 20
9.910143551489691
 30
0.0
  0
VERTEX
  5
329
  8
FISHER___PAYKEL
 62
     7
 10
581.2314895518637
 20
9.879879262375479
 30
0.0
  0
VERTEX
  5
32A
  8
FISHER___PAYKEL
 62
     7
 10
581.1904292351421
 20
9.848814715260577
 30
0.0
  0
VERTEX
  5
32B
  8
FISHER___PAYKEL
 62
     7
 10
581.1504644587851
 20
9.816962102553227
 30
0.0
  0
VERTEX
  5
32C
  8
FISHER___PAYKEL
 62
     7
 10
581.1116058810569
 20
9.784333616661673
 30
0.0
  0
VERTEX
  5
32D
  8
FISHER___PAYKEL
 62
     7
 10
581.0738641602215
 20
9.750941449994158
 30
0.0
  0
VERTEX
  5
32E
  8
FISHER___PAYKEL
 62
     7
 10
581.0372499545432
 20
9.716797794958929
 30
0.0
  0
VERTEX
  5
32F
  8
FISHER___PAYKEL
 62
     7
 10
581.0017739222861
 20
9.681914843964224
 30
0.0
  0
VERTEX
  5
330
  8
FISHER___PAYKEL
 62
     7
 10
580.9674467217145
 20
9.646304789418291
 30
0.0
  0
VERTEX
  5
331
  8
FISHER___PAYKEL
 62
     7
 10
580.9342790110924
 20
9.609979823729375
 30
0.0
  0
VERTEX
  5
332
  8
FISHER___PAYKEL
 62
     7
 10
580.9022814486839
 20
9.57295213930572
 30
0.0
  0
VERTEX
  5
333
  8
FISHER___PAYKEL
 62
     7
 10
580.8714646927533
 20
9.535233928555567
 30
0.0
  0
VERTEX
  5
334
  8
FISHER___PAYKEL
 62
     7
 10
580.8418394015648
 20
9.496837383887158
 30
0.0
  0
VERTEX
  5
335
  8
FISHER___PAYKEL
 62
     7
 10
580.8134162333823
 20
9.45777469770874
 30
0.0
  0
VERTEX
  5
336
  8
FISHER___PAYKEL
 62
     7
 10
580.7862058464704
 20
9.418058062428557
 30
0.0
  0
VERTEX
  5
337
  8
FISHER___PAYKEL
 62
     7
 10
580.7602188990929
 20
9.377699670454854
 30
0.0
  0
VERTEX
  5
338
  8
FISHER___PAYKEL
 62
     7
 10
580.7354660495141
 20
9.336711714195872
 30
0.0
  0
VERTEX
  5
339
  8
FISHER___PAYKEL
 62
     7
 10
580.7119579559981
 20
9.295106386059855
 30
0.0
  0
VERTEX
  5
33A
  8
FISHER___PAYKEL
 62
     7
 10
580.689705276809
 20
9.25289587845505
 30
0.0
  0
VERTEX
  5
33B
  8
FISHER___PAYKEL
 62
     7
 10
580.6687186702112
 20
9.210092383789696
 30
0.0
  0
VERTEX
  5
33C
  8
FISHER___PAYKEL
 62
     7
 10
580.6490087944686
 20
9.16670809447204
 30
0.0
  0
VERTEX
  5
33D
  8
FISHER___PAYKEL
 62
     7
 10
580.6305863078454
 20
9.122755202910326
 30
0.0
  0
VERTEX
  5
33E
  8
FISHER___PAYKEL
 62
     7
 10
580.6134618686059
 20
9.078245901512798
 30
0.0
  0
VERTEX
  5
33F
  8
FISHER___PAYKEL
 62
     7
 10
580.5976461350142
 20
9.033192382687698
 30
0.0
  0
VERTEX
  5
340
  8
FISHER___PAYKEL
 62
     7
 10
580.5831497653344
 20
8.98760683884327
 30
0.0
  0
VERTEX
  5
341
  8
FISHER___PAYKEL
 62
     7
 10
580.5699834178307
 20
8.94150146238776
 30
0.0
  0
VERTEX
  5
342
  8
FISHER___PAYKEL
 62
     7
 10
580.5581577507674
 20
8.894888445729409
 30
0.0
  0
VERTEX
  5
343
  8
FISHER___PAYKEL
 62
     7
 10
580.5476834224085
 20
8.847779981276462
 30
0.0
  0
VERTEX
  5
344
  8
FISHER___PAYKEL
 62
     7
 10
580.5385710910181
 20
8.800188261437164
 30
0.0
  0
VERTEX
  5
345
  8
FISHER___PAYKEL
 62
     7
 10
580.5308314148605
 20
8.752125478619757
 30
0.0
  0
VERTEX
  5
346
  8
FISHER___PAYKEL
 62
     7
 10
580.5244750521997
 20
8.703603825232486
 30
0.0
  0
VERTEX
  5
347
  8
FISHER___PAYKEL
 62
     7
 10
580.5195126613
 20
8.654635493683596
 30
0.0
  0
VERTEX
  5
348
  8
FISHER___PAYKEL
 62
     7
 10
580.5159549004256
 20
8.605232676381327
 30
0.0
  0
VERTEX
  5
349
  8
FISHER___PAYKEL
 62
     7
 10
580.5138124278405
 20
8.555407565733926
 30
0.0
  0
VERTEX
  5
34A
  8
FISHER___PAYKEL
 62
     7
 10
580.513095901809
 20
8.505172354149636
 30
0.0
  0
VERTEX
  5
34B
  8
FISHER___PAYKEL
 62
     7
 10
580.513095901809
 20
8.462839020815863
 30
0.0
  0
VERTEX
  5
34C
  8
FISHER___PAYKEL
 62
     7
 10
580.5133652467084
 20
8.434700840083153
 30
0.0
  0
VERTEX
  5
34D
  8
FISHER___PAYKEL
 62
     7
 10
580.5141706235693
 20
8.406839531985328
 30
0.0
  0
VERTEX
  5
34E
  8
FISHER___PAYKEL
 62
     7
 10
580.5155080456354
 20
8.379252916422905
 30
0.0
  0
VERTEX
  5
34F
  8
FISHER___PAYKEL
 62
     7
 10
580.5173735261512
 20
8.351938813296394
 30
0.0
  0
VERTEX
  5
350
  8
FISHER___PAYKEL
 62
     7
 10
580.5197630783603
 20
8.32489504250631
 30
0.0
  0
VERTEX
  5
351
  8
FISHER___PAYKEL
 62
     7
 10
580.5226727155068
 20
8.298119423953164
 30
0.0
  0
VERTEX
  5
352
  8
FISHER___PAYKEL
 62
     7
 10
580.5260984508348
 20
8.271609777537469
 30
0.0
  0
VERTEX
  5
353
  8
FISHER___PAYKEL
 62
     7
 10
580.5300362975881
 20
8.245363923159736
 30
0.0
  0
VERTEX
  5
354
  8
FISHER___PAYKEL
 62
     7
 10
580.5344822690108
 20
8.21937968072048
 30
0.0
  0
VERTEX
  5
355
  8
FISHER___PAYKEL
 62
     7
 10
580.5394323783469
 20
8.193654870120215
 30
0.0
  0
VERTEX
  5
356
  8
FISHER___PAYKEL
 62
     7
 10
580.5448826388404
 20
8.168187311259452
 30
0.0
  0
VERTEX
  5
357
  8
FISHER___PAYKEL
 62
     7
 10
580.5508290637353
 20
8.142974824038703
 30
0.0
  0
VERTEX
  5
358
  8
FISHER___PAYKEL
 62
     7
 10
580.5572676662755
 20
8.11801522835848
 30
0.0
  0
VERTEX
  5
359
  8
FISHER___PAYKEL
 62
     7
 10
580.564194459705
 20
8.093306344119299
 30
0.0
  0
VERTEX
  5
35A
  8
FISHER___PAYKEL
 62
     7
 10
580.5716054572679
 20
8.068845991221668
 30
0.0
  0
VERTEX
  5
35B
  8
FISHER___PAYKEL
 62
     7
 10
580.5794966722083
 20
8.044631989566103
 30
0.0
  0
VERTEX
  5
35C
  8
FISHER___PAYKEL
 62
     7
 10
580.5878641177699
 20
8.020662159053117
 30
0.0
  0
VERTEX
  5
35D
  8
FISHER___PAYKEL
 62
     7
 10
580.5967038071968
 20
7.99693431958322
 30
0.0
  0
VERTEX
  5
35E
  8
FISHER___PAYKEL
 62
     7
 10
580.6060117537331
 20
7.973446291056927
 30
0.0
  0
VERTEX
  5
35F
  8
FISHER___PAYKEL
 62
     7
 10
580.6157839706227
 20
7.950195893374751
 30
0.0
  0
VERTEX
  5
360
  8
FISHER___PAYKEL
 62
     7
 10
580.6260164711096
 20
7.927180946437204
 30
0.0
  0
VERTEX
  5
361
  8
FISHER___PAYKEL
 62
     7
 10
580.6367052684378
 20
7.904399270144798
 30
0.0
  0
VERTEX
  5
362
  8
FISHER___PAYKEL
 62
     7
 10
580.6478463758513
 20
7.881848684398046
 30
0.0
  0
VERTEX
  5
363
  8
FISHER___PAYKEL
 62
     7
 10
580.659435806594
 20
7.85952700909746
 30
0.0
  0
VERTEX
  5
364
  8
FISHER___PAYKEL
 62
     7
 10
580.6714695739101
 20
7.837432064143554
 30
0.0
  0
VERTEX
  5
365
  8
FISHER___PAYKEL
 62
     7
 10
580.6839436910434
 20
7.815561669436841
 30
0.0
  0
VERTEX
  5
366
  8
FISHER___PAYKEL
 62
     7
 10
580.6968541712381
 20
7.793913644877833
 30
0.0
  0
VERTEX
  5
367
  8
FISHER___PAYKEL
 62
     7
 10
580.710197027738
 20
7.772485810367042
 30
0.0
  0
VERTEX
  5
368
  8
FISHER___PAYKEL
 62
     7
 10
580.7239682737871
 20
7.751275985804981
 30
0.0
  0
VERTEX
  5
369
  8
FISHER___PAYKEL
 62
     7
 10
580.7381639226296
 20
7.730281991092164
 30
0.0
  0
VERTEX
  5
36A
  8
FISHER___PAYKEL
 62
     7
 10
580.7527799875091
 20
7.709501646129102
 30
0.0
  0
VERTEX
  5
36B
  8
FISHER___PAYKEL
 62
     7
 10
580.7678124816699
 20
7.688932770816308
 30
0.0
  0
VERTEX
  5
36C
  8
FISHER___PAYKEL
 62
     7
 10
580.7832574183559
 20
7.668573185054296
 30
0.0
  0
VERTEX
  5
36D
  8
FISHER___PAYKEL
 62
     7
 10
580.7991108108113
 20
7.648420708743577
 30
0.0
  0
VERTEX
  5
36E
  8
FISHER___PAYKEL
 62
     7
 10
580.8320270160054
 20
7.608728364078072
 30
0.0
  0
VERTEX
  5
36F
  8
FISHER___PAYKEL
 62
     7
 10
580.8665292032045
 20
7.569838296023894
 30
0.0
  0
VERTEX
  5
370
  8
FISHER___PAYKEL
 62
     7
 10
580.9025854783604
 20
7.531733063785145
 30
0.0
  0
VERTEX
  5
371
  8
FISHER___PAYKEL
 62
     7
 10
580.9401639474249
 20
7.494395226565927
 30
0.0
  0
VERTEX
  5
372
  8
FISHER___PAYKEL
 62
     7
 10
580.97923271635
 20
7.457807343570341
 30
0.0
  0
VERTEX
  5
373
  8
FISHER___PAYKEL
 62
     7
 10
581.0197598910877
 20
7.421951974002489
 30
0.0
  0
VERTEX
  5
374
  8
FISHER___PAYKEL
 62
     7
 10
581.0617135775899
 20
7.386811677066472
 30
0.0
  0
VERTEX
  5
375
  8
FISHER___PAYKEL
 62
     7
 10
581.1050618818085
 20
7.352369011966392
 30
0.0
  0
VERTEX
  5
376
  8
FISHER___PAYKEL
 62
     7
 10
581.1497729096957
 20
7.31860653790635
 30
0.0
  0
VERTEX
  5
377
  8
FISHER___PAYKEL
 62
     7
 10
581.1958147672033
 20
7.285506814090448
 30
0.0
  0
VERTEX
  5
378
  8
FISHER___PAYKEL
 62
     7
 10
581.243155560283
 20
7.253052399722787
 30
0.0
  0
VERTEX
  5
379
  8
FISHER___PAYKEL
 62
     7
 10
581.2917633948869
 20
7.221225854007468
 30
0.0
  0
VERTEX
  5
37A
  8
FISHER___PAYKEL
 62
     7
 10
581.3416063769671
 20
7.190009736148594
 30
0.0
  0
VERTEX
  5
37B
  8
FISHER___PAYKEL
 62
     7
 10
581.3926526124756
 20
7.159386605350267
 30
0.0
  0
VERTEX
  5
37C
  8
FISHER___PAYKEL
 62
     7
 10
581.444870207364
 20
7.129339020816587
 30
0.0
  0
VERTEX
  5
37D
  8
FISHER___PAYKEL
 62
     7
 10
581.552691899089
 20
7.070900727359577
 30
0.0
  0
VERTEX
  5
37E
  8
FISHER___PAYKEL
 62
     7
 10
581.6648162997576
 20
7.014555329410374
 30
0.0
  0
VERTEX
  5
37F
  8
FISHER___PAYKEL
 62
     7
 10
581.7809882569854
 20
6.960163300601794
 30
0.0
  0
VERTEX
  5
380
  8
FISHER___PAYKEL
 62
     7
 10
581.9009526183881
 20
6.907585114566647
 30
0.0
  0
VERTEX
  5
381
  8
FISHER___PAYKEL
 62
     7
 10
582.0244542315811
 20
6.856681244937747
 30
0.0
  0
VERTEX
  5
382
  8
FISHER___PAYKEL
 62
     7
 10
582.1512379441801
 20
6.807312165347904
 30
0.0
  0
VERTEX
  5
383
  8
FISHER___PAYKEL
 62
     7
 10
582.4136310580582
 20
6.712620270816643
 30
0.0
  0
VERTEX
  5
384
  8
FISHER___PAYKEL
 62
     7
 10
582.6860907409466
 20
6.622393220035365
 30
0.0
  0
VERTEX
  5
385
  8
FISHER___PAYKEL
 62
     7
 10
582.96657577377
 20
6.535514802066569
 30
0.0
  0
VERTEX
  5
386
  8
FISHER___PAYKEL
 62
     7
 10
583.5434570129194
 20
6.367339020816416
 30
0.0
  0
VERTEX
  5
387
  8
FISHER___PAYKEL
 62
     7
 10
584.2021730502458
 20
6.175647017778459
 30
0.0
  0
VERTEX
  5
388
  8
FISHER___PAYKEL
 62
     7
 10
584.5272574279586
 20
6.070496674625309
 30
0.0
  0
VERTEX
  5
389
  8
FISHER___PAYKEL
 62
     7
 10
584.8457582281975
 20
5.95695924651119
 30
0.0
  0
VERTEX
  5
38A
  8
FISHER___PAYKEL
 62
     7
 10
585.0016645171922
 20
5.896533455936378
 30
0.0
  0
VERTEX
  5
38B
  8
FISHER___PAYKEL
 62
     7
 10
585.1548745883322
 20
5.833396590532461
 30
0.0
  0
VERTEX
  5
38C
  8
FISHER___PAYKEL
 62
     7
 10
585.3050383337884
 20
5.76734388243648
 30
0.0
  0
VERTEX
  5
38D
  8
FISHER___PAYKEL
 62
     7
 10
585.4518056457323
 20
5.698170563785482
 30
0.0
  0
VERTEX
  5
38E
  8
FISHER___PAYKEL
 62
     7
 10
585.5948264163351
 20
5.625671866716511
 30
0.0
  0
VERTEX
  5
38F
  8
FISHER___PAYKEL
 62
     7
 10
585.7337505377678
 20
5.549643023366611
 30
0.0
  0
VERTEX
  5
390
  8
FISHER___PAYKEL
 62
     7
 10
585.801566946349
 20
5.510240806879141
 30
0.0
  0
VERTEX
  5
391
  8
FISHER___PAYKEL
 62
     7
 10
585.8682279022021
 20
5.46987926587283
 30
0.0
  0
VERTEX
  5
392
  8
FISHER___PAYKEL
 62
     7
 10
585.9336896418481
 20
5.428532804364808
 30
0.0
  0
VERTEX
  5
393
  8
FISHER___PAYKEL
 62
     7
 10
585.9979084018088
 20
5.386175826372209
 30
0.0
  0
VERTEX
  5
394
  8
FISHER___PAYKEL
 62
     7
 10
586.0608404186055
 20
5.342782735912161
 30
0.0
  0
VERTEX
  5
395
  8
FISHER___PAYKEL
 62
     7
 10
586.1224419287594
 20
5.298327937001796
 30
0.0
  0
VERTEX
  5
396
  8
FISHER___PAYKEL
 62
     7
 10
586.1826691687919
 20
5.252785833658244
 30
0.0
  0
VERTEX
  5
397
  8
FISHER___PAYKEL
 62
     7
 10
586.2414783752247
 20
5.206130829898635
 30
0.0
  0
VERTEX
  5
398
  8
FISHER___PAYKEL
 62
     7
 10
586.2988257845791
 20
5.1583373297401
 30
0.0
  0
VERTEX
  5
399
  8
FISHER___PAYKEL
 62
     7
 10
586.3546676333763
 20
5.10937973719977
 30
0.0
  0
VERTEX
  5
39A
  8
FISHER___PAYKEL
 62
     7
 10
586.4089601581379
 20
5.059232456294776
 30
0.0
  0
VERTEX
  5
39B
  8
FISHER___PAYKEL
 62
     7
 10
586.4616595953853
 20
5.007869891042247
 30
0.0
  0
VERTEX
  5
39C
  8
FISHER___PAYKEL
 62
     7
 10
586.5127221816398
 20
4.955266445459316
 30
0.0
  0
VERTEX
  5
39D
  8
FISHER___PAYKEL
 62
     7
 10
586.562104153423
 20
4.901396523563111
 30
0.0
  0
VERTEX
  5
39E
  8
FISHER___PAYKEL
 62
     7
 10
586.609761747256
 20
4.846234529370765
 30
0.0
  0
VERTEX
  5
39F
  8
FISHER___PAYKEL
 62
     7
 10
586.6556511996605
 20
4.789754866899406
 30
0.0
  0
VERTEX
  5
3A0
  8
FISHER___PAYKEL
 62
     7
 10
586.6997287471577
 20
4.731931940166167
 30
0.0
  0
VERTEX
  5
3A1
  8
FISHER___PAYKEL
 62
     7
 10
586.741950626269
 20
4.672740153188178
 30
0.0
  0
VERTEX
  5
3A2
  8
FISHER___PAYKEL
 62
     7
 10
586.7822730735161
 20
4.612153909982569
 30
0.0
  0
VERTEX
  5
3A3
  8
FISHER___PAYKEL
 62
     7
 10
586.82065232542
 20
4.55014761456647
 30
0.0
  0
VERTEX
  5
3A4
  8
FISHER___PAYKEL
 62
     7
 10
586.8570446185024
 20
4.486695670957014
 30
0.0
  0
VERTEX
  5
3A5
  8
FISHER___PAYKEL
 62
     7
 10
586.8914061892845
 20
4.421772483171328
 30
0.0
  0
VERTEX
  5
3A6
  8
FISHER___PAYKEL
 62
     7
 10
586.9236932742879
 20
4.355352455226546
 30
0.0
  0
VERTEX
  5
3A7
  8
FISHER___PAYKEL
 62
     7
 10
586.9538621100338
 20
4.287409991139798
 30
0.0
  0
VERTEX
  5
3A8
  8
FISHER___PAYKEL
 62
     7
 10
586.9818689330438
 20
4.217919494928214
 30
0.0
  0
VERTEX
  5
3A9
  8
FISHER___PAYKEL
 62
     7
 10
587.007669979839
 20
4.146855370608924
 30
0.0
  0
VERTEX
  5
3AA
  8
FISHER___PAYKEL
 62
     7
 10
587.0312214869411
 20
4.07419202219906
 30
0.0
  0
VERTEX
  5
3AB
  8
FISHER___PAYKEL
 62
     7
 10
587.0524796908715
 20
3.99990385371575
 30
0.0
  0
VERTEX
  5
3AC
  8
FISHER___PAYKEL
 62
     7
 10
587.0714008281514
 20
3.923965269176128
 30
0.0
  0
VERTEX
  5
3AD
  8
FISHER___PAYKEL
 62
     7
 10
587.0879411353023
 20
3.846350672597323
 30
0.0
  0
VERTEX
  5
3AE
  8
FISHER___PAYKEL
 62
     7
 10
587.1020568488457
 20
3.767034467996465
 30
0.0
  0
VERTEX
  5
3AF
  8
FISHER___PAYKEL
 62
     7
 10
587.1137042053028
 20
3.685991059390686
 30
0.0
  0
VERTEX
  5
3B0
  8
FISHER___PAYKEL
 62
     7
 10
587.1228394411953
 20
3.603194850797115
 30
0.0
  0
VERTEX
  5
3B1
  8
FISHER___PAYKEL
 62
     7
 10
587.1294187930444
 20
3.518620246232884
 30
0.0
  0
VERTEX
  5
3B2
  8
FISHER___PAYKEL
 62
     7
 10
587.1333984973713
 20
3.432241649715123
 30
0.0
  0
VERTEX
  5
3B3
  8
FISHER___PAYKEL
 62
     7
 10
587.1347347906978
 20
3.344033465260964
 30
0.0
  0
VERTEX
  5
3B4
  8
FISHER___PAYKEL
 62
     7
 10
587.1347347906978
 20
3.298172354150211
 30
0.0
  0
VERTEX
  5
3B5
  8
FISHER___PAYKEL
 62
     7
 10
587.1335199504447
 20
3.208399463847321
 30
0.0
  0
VERTEX
  5
3B6
  8
FISHER___PAYKEL
 62
     7
 10
587.1298943238805
 20
3.119666884722005
 30
0.0
  0
VERTEX
  5
3B7
  8
FISHER___PAYKEL
 62
     7
 10
587.123886252299
 20
3.031986566949227
 30
0.0
  0
VERTEX
  5
3B8
  8
FISHER___PAYKEL
 62
     7
 10
587.1155240769933
 20
2.945370460703957
 30
0.0
  0
VERTEX
  5
3B9
  8
FISHER___PAYKEL
 62
     7
 10
587.1048361392568
 20
2.859830516161162
 30
0.0
  0
VERTEX
  5
3BA
  8
FISHER___PAYKEL
 62
     7
 10
587.0918507803829
 20
2.775378683495809
 30
0.0
  0
VERTEX
  5
3BB
  8
FISHER___PAYKEL
 62
     7
 10
587.0765963416648
 20
2.692026912882866
 30
0.0
  0
VERTEX
  5
3BC
  8
FISHER___PAYKEL
 62
     7
 10
587.0591011643958
 20
2.609787154497299
 30
0.0
  0
VERTEX
  5
3BD
  8
FISHER___PAYKEL
 62
     7
 10
587.0393935898693
 20
2.528671358514077
 30
0.0
  0
VERTEX
  5
3BE
  8
FISHER___PAYKEL
 62
     7
 10
587.0175019593787
 20
2.448691475108167
 30
0.0
  0
VERTEX
  5
3BF
  8
FISHER___PAYKEL
 62
     7
 10
586.9934546142172
 20
2.369859454454536
 30
0.0
  0
VERTEX
  5
3C0
  8
FISHER___PAYKEL
 62
     7
 10
586.9672798956783
 20
2.292187246728152
 30
0.0
  0
VERTEX
  5
3C1
  8
FISHER___PAYKEL
 62
     7
 10
586.9390061450553
 20
2.215686802103982
 30
0.0
  0
VERTEX
  5
3C2
  8
FISHER___PAYKEL
 62
     7
 10
586.9086617036413
 20
2.140370070756993
 30
0.0
  0
VERTEX
  5
3C3
  8
FISHER___PAYKEL
 62
     7
 10
586.87627491273
 20
2.066249002862154
 30
0.0
  0
VERTEX
  5
3C4
  8
FISHER___PAYKEL
 62
     7
 10
586.8418741136145
 20
1.99333554859443
 30
0.0
  0
VERTEX
  5
3C5
  8
FISHER___PAYKEL
 62
     7
 10
586.8054876475882
 20
1.921641658128791
 30
0.0
  0
VERTEX
  5
3C6
  8
FISHER___PAYKEL
 62
     7
 10
586.7671438559444
 20
1.851179281640203
 30
0.0
  0
VERTEX
  5
3C7
  8
FISHER___PAYKEL
 62
     7
 10
586.7268710799765
 20
1.781960369303634
 30
0.0
  0
VERTEX
  5
3C8
  8
FISHER___PAYKEL
 62
     7
 10
586.6846976609777
 20
1.713996871294051
 30
0.0
  0
VERTEX
  5
3C9
  8
FISHER___PAYKEL
 62
     7
 10
586.6406519402415
 20
1.647300737786422
 30
0.0
  0
VERTEX
  5
3CA
  8
FISHER___PAYKEL
 62
     7
 10
586.5947622590611
 20
1.581883918955714
 30
0.0
  0
VERTEX
  5
3CB
  8
FISHER___PAYKEL
 62
     7
 10
586.5470569587301
 20
1.517758364976894
 30
0.0
  0
VERTEX
  5
3CC
  8
FISHER___PAYKEL
 62
     7
 10
586.4975643805415
 20
1.45493602602493
 30
0.0
  0
VERTEX
  5
3CD
  8
FISHER___PAYKEL
 62
     7
 10
586.4463128657887
 20
1.393428852274789
 30
0.0
  0
VERTEX
  5
3CE
  8
FISHER___PAYKEL
 62
     7
 10
586.3933307557653
 20
1.333248793901439
 30
0.0
  0
VERTEX
  5
3CF
  8
FISHER___PAYKEL
 62
     7
 10
586.3386463917643
 20
1.274407801079848
 30
0.0
  0
VERTEX
  5
3D0
  8
FISHER___PAYKEL
 62
     7
 10
586.2822881150792
 20
1.216917823984982
 30
0.0
  0
VERTEX
  5
3D1
  8
FISHER___PAYKEL
 62
     7
 10
586.2242842670032
 20
1.160790812791809
 30
0.0
  0
VERTEX
  5
3D2
  8
FISHER___PAYKEL
 62
     7
 10
586.16466318883
 20
1.106038717675297
 30
0.0
  0
VERTEX
  5
3D3
  8
FISHER___PAYKEL
 62
     7
 10
586.1034532218526
 20
1.052673488810412
 30
0.0
  0
VERTEX
  5
3D4
  8
FISHER___PAYKEL
 62
     7
 10
586.0406827073643
 20
1.000707076372123
 30
0.0
  0
VERTEX
  5
3D5
  8
FISHER___PAYKEL
 62
     7
 10
585.9763799866587
 20
0.9501514305353969
 30
0.0
  0
VERTEX
  5
3D6
  8
FISHER___PAYKEL
 62
     7
 10
585.910573401029
 20
0.9010185014752008
 30
0.0
  0
VERTEX
  5
3D7
  8
FISHER___PAYKEL
 62
     7
 10
585.8432912917683
 20
0.8533202393665025
 30
0.0
  0
VERTEX
  5
3D8
  8
FISHER___PAYKEL
 62
     7
 10
585.7745620001704
 20
0.8070685943842693
 30
0.0
  0
VERTEX
  5
3D9
  8
FISHER___PAYKEL
 62
     7
 10
585.7044138675283
 20
0.7622755167034685
 30
0.0
  0
VERTEX
  5
3DA
  8
FISHER___PAYKEL
 62
     7
 10
585.6328752351353
 20
0.7189529564990678
 30
0.0
  0
VERTEX
  5
3DB
  8
FISHER___PAYKEL
 62
     7
 10
585.559974444285
 20
0.6771128639460344
 30
0.0
  0
VERTEX
  5
3DC
  8
FISHER___PAYKEL
 62
     7
 10
585.4857398362706
 20
0.6367671892193361
 30
0.0
  0
VERTEX
  5
3DD
  8
FISHER___PAYKEL
 62
     7
 10
585.4101997523853
 20
0.5979278824939398
 30
0.0
  0
VERTEX
  5
3DE
  8
FISHER___PAYKEL
 62
     7
 10
585.3333825339225
 20
0.5606068939448134
 30
0.0
  0
VERTEX
  5
3DF
  8
FISHER___PAYKEL
 62
     7
 10
585.2553165221759
 20
0.5248161737469241
 30
0.0
  0
VERTEX
  5
3E0
  8
FISHER___PAYKEL
 62
     7
 10
585.1760300584384
 20
0.4905676720752392
 30
0.0
  0
VERTEX
  5
3E1
  8
FISHER___PAYKEL
 62
     7
 10
585.0955514840034
 20
0.4578733391047264
 30
0.0
  0
VERTEX
  5
3E2
  8
FISHER___PAYKEL
 62
     7
 10
585.0139091401644
 20
0.4267451250103531
 30
0.0
  0
VERTEX
  5
3E3
  8
FISHER___PAYKEL
 62
     7
 10
584.9311313682147
 20
0.3971949799670866
 30
0.0
  0
VERTEX
  5
3E4
  8
FISHER___PAYKEL
 62
     7
 10
584.8472465094475
 20
0.3692348541498944
 30
0.0
  0
VERTEX
  5
3E5
  8
FISHER___PAYKEL
 62
     7
 10
584.7622829051562
 20
0.342876697733744
 30
0.0
  0
VERTEX
  5
3E6
  8
FISHER___PAYKEL
 62
     7
 10
584.6762688966342
 20
0.3181324608936027
 30
0.0
  0
VERTEX
  5
3E7
  8
FISHER___PAYKEL
 62
     7
 10
584.5892328251747
 20
0.2950140938044381
 30
0.0
  0
VERTEX
  5
3E8
  8
FISHER___PAYKEL
 62
     7
 10
584.5012030320712
 20
0.2735335466412174
 30
0.0
  0
VERTEX
  5
3E9
  8
FISHER___PAYKEL
 62
     7
 10
584.412207858617
 20
0.2537027695789083
 30
0.0
  0
VERTEX
  5
3EA
  8
FISHER___PAYKEL
 62
     7
 10
584.3222756461053
 20
0.235533712792478
 30
0.0
  0
VERTEX
  5
3EB
  8
FISHER___PAYKEL
 62
     7
 10
584.2314347358295
 20
0.2190383264568941
 30
0.0
  0
VERTEX
  5
3EC
  8
FISHER___PAYKEL
 62
     7
 10
584.1397134690828
 20
0.2042285607471239
 30
0.0
  0
VERTEX
  5
3ED
  8
FISHER___PAYKEL
 62
     7
 10
584.0471401871589
 20
0.191116365838135
 30
0.0
  0
VERTEX
  5
3EE
  8
FISHER___PAYKEL
 62
     7
 10
583.9537432313508
 20
0.1797136919048946
 30
0.0
  0
VERTEX
  5
3EF
  8
FISHER___PAYKEL
 62
     7
 10
583.859550942952
 20
0.1700324891223704
 30
0.0
  0
VERTEX
  5
3F0
  8
FISHER___PAYKEL
 62
     7
 10
583.7645916632559
 20
0.1620847076655296
 30
0.0
  0
VERTEX
  5
3F1
  8
FISHER___PAYKEL
 62
     7
 10
583.6688937335557
 20
0.1558822977093398
 30
0.0
  0
VERTEX
  5
3F2
  8
FISHER___PAYKEL
 62
     7
 10
583.5724854951447
 20
0.1514372094287683
 30
0.0
  0
VERTEX
  5
3F3
  8
FISHER___PAYKEL
 62
     7
 10
583.4753952893165
 20
0.1487613929987827
 30
0.0
  0
VERTEX
  5
3F4
  8
FISHER___PAYKEL
 62
     7
 10
583.377651457364
 20
0.1478667985943245
 30
0.0
 42
-0.1620993122898743
  0
SEQEND
  5
3F5
  8
FISHER___PAYKEL
 62
     7
  0
POLYLINE
  5
3F6
  8
FISHER___PAYKEL
 62
     7
 66
     1
 10
0.0
 20
0.0
 30
0.0
 70
     1
  0
VERTEX
  5
3F7
  8
FISHER___PAYKEL
 62
     7
 10
575.6937986795858
 20
6.261858465260502
 30
0.0
  0
VERTEX
  5
3F8
  8
FISHER___PAYKEL
 62
     7
 10
575.6766484559598
 20
6.465686678422422
 30
0.0
  0
VERTEX
  5
3F9
  8
FISHER___PAYKEL
 62
     7
 10
575.6529631015151
 20
6.668166136701524
 30
0.0
  0
VERTEX
  5
3FA
  8
FISHER___PAYKEL
 62
     7
 10
575.6227187159017
 20
6.868960943287914
 30
0.0
  0
VERTEX
  5
3FB
  8
FISHER___PAYKEL
 62
     7
 10
575.5858913987697
 20
7.067735201371693
 30
0.0
  0
VERTEX
  5
3FC
  8
FISHER___PAYKEL
 62
     7
 10
575.5424572497693
 20
7.26415301414297
 30
0.0
  0
VERTEX
  5
3FD
  8
FISHER___PAYKEL
 62
     7
 10
575.5182551444591
 20
7.361373285783325
 30
0.0
  0
VERTEX
  5
3FE
  8
FISHER___PAYKEL
 62
     7
 10
575.4923923685506
 20
7.457878484791845
 30
0.0
  0
VERTEX
  5
3FF
  8
FISHER___PAYKEL
 62
     7
 10
575.4648659344999
 20
7.55362662406729
 30
0.0
  0
VERTEX
  5
400
  8
FISHER___PAYKEL
 62
     7
 10
575.4356728547634
 20
7.648575716508424
 30
0.0
  0
VERTEX
  5
401
  8
FISHER___PAYKEL
 62
     7
 10
575.4048101417973
 20
7.742683775014012
 30
0.0
  0
VERTEX
  5
402
  8
FISHER___PAYKEL
 62
     7
 10
575.3722748080579
 20
7.835908812482813
 30
0.0
  0
VERTEX
  5
403
  8
FISHER___PAYKEL
 62
     7
 10
575.3380638660014
 20
7.928208841813594
 30
0.0
  0
VERTEX
  5
404
  8
FISHER___PAYKEL
 62
     7
 10
575.3021743280842
 20
8.019541875905116
 30
0.0
  0
VERTEX
  5
405
  8
FISHER___PAYKEL
 62
     7
 10
575.2646032067624
 20
8.109865927656141
 30
0.0
  0
VERTEX
  5
406
  8
FISHER___PAYKEL
 62
     7
 10
575.2253475144923
 20
8.199139009965435
 30
0.0
  0
VERTEX
  5
407
  8
FISHER___PAYKEL
 62
     7
 10
575.1844042637304
 20
8.28731913573176
 30
0.0
  0
VERTEX
  5
408
  8
FISHER___PAYKEL
 62
     7
 10
575.1417704669325
 20
8.374364317853878
 30
0.0
  0
VERTEX
  5
409
  8
FISHER___PAYKEL
 62
     7
 10
575.0974431365551
 20
8.460232569230554
 30
0.0
  0
VERTEX
  5
40A
  8
FISHER___PAYKEL
 62
     7
 10
575.0514192850544
 20
8.544881902760547
 30
0.0
  0
VERTEX
  5
40B
  8
FISHER___PAYKEL
 62
     7
 10
575.0036959248868
 20
8.628270331342623
 30
0.0
  0
VERTEX
  5
40C
  8
FISHER___PAYKEL
 62
     7
 10
574.9542700685084
 20
8.710355867875549
 30
0.0
  0
VERTEX
  5
40D
  8
FISHER___PAYKEL
 62
     7
 10
574.9031387283758
 20
8.79109652525808
 30
0.0
  0
VERTEX
  5
40E
  8
FISHER___PAYKEL
 62
     7
 10
574.8502989169447
 20
8.870450316388984
 30
0.0
  0
VERTEX
  5
40F
  8
FISHER___PAYKEL
 62
     7
 10
574.7957476466717
 20
8.948375254167024
 30
0.0
  0
VERTEX
  5
410
  8
FISHER___PAYKEL
 62
     7
 10
574.739481930013
 20
9.024829351490961
 30
0.0
  0
VERTEX
  5
411
  8
FISHER___PAYKEL
 62
     7
 10
574.6814987794248
 20
9.099770621259559
 30
0.0
  0
VERTEX
  5
412
  8
FISHER___PAYKEL
 62
     7
 10
574.6217952073634
 20
9.17315707637158
 30
0.0
  0
VERTEX
  5
413
  8
FISHER___PAYKEL
 62
     7
 10
574.5603682262852
 20
9.244946729725791
 30
0.0
  0
VERTEX
  5
414
  8
FISHER___PAYKEL
 62
     7
 10
574.4972148486463
 20
9.315097594220951
 30
0.0
  0
VERTEX
  5
415
  8
FISHER___PAYKEL
 62
     7
 10
574.432332086903
 20
9.383567682755825
 30
0.0
  0
VERTEX
  5
416
  8
FISHER___PAYKEL
 62
     7
 10
574.3657169535115
 20
9.450315008229174
 30
0.0
  0
VERTEX
  5
417
  8
FISHER___PAYKEL
 62
     7
 10
574.2973664609281
 20
9.515297583539763
 30
0.0
  0
VERTEX
  5
418
  8
FISHER___PAYKEL
 62
     7
 10
574.227277621609
 20
9.578473421586356
 30
0.0
  0
VERTEX
  5
419
  8
FISHER___PAYKEL
 62
     7
 10
574.1554474480106
 20
9.639800535267714
 30
0.0
  0
VERTEX
  5
41A
  8
FISHER___PAYKEL
 62
     7
 10
574.0818729525892
 20
9.699236937482599
 30
0.0
  0
VERTEX
  5
41B
  8
FISHER___PAYKEL
 62
     7
 10
574.0065511478008
 20
9.756740641129776
 30
0.0
  0
VERTEX
  5
41C
  8
FISHER___PAYKEL
 62
     7
 10
573.9294790461017
 20
9.81226965910801
 30
0.0
  0
VERTEX
  5
41D
  8
FISHER___PAYKEL
 62
     7
 10
573.8506536599484
 20
9.86578200431606
 30
0.0
  0
VERTEX
  5
41E
  8
FISHER___PAYKEL
 62
     7
 10
573.7700720017971
 20
9.917235689652692
 30
0.0
  0
VERTEX
  5
41F
  8
FISHER___PAYKEL
 62
     7
 10
573.6877310841038
 20
9.966588728016667
 30
0.0
  0
VERTEX
  5
420
  8
FISHER___PAYKEL
 62
     7
 10
573.603627919325
 20
10.01379913230675
 30
0.0
  0
VERTEX
  5
421
  8
FISHER___PAYKEL
 62
     7
 10
573.5177595199168
 20
10.0588249154217
 30
0.0
  0
VERTEX
  5
422
  8
FISHER___PAYKEL
 62
     7
 10
573.4301228983358
 20
10.10162409026029
 30
0.0
  0
VERTEX
  5
423
  8
FISHER___PAYKEL
 62
     7
 10
573.3407150670378
 20
10.14215466972127
 30
0.0
  0
VERTEX
  5
424
  8
FISHER___PAYKEL
 62
     7
 10
573.2495330384793
 20
10.18037466670341
 30
0.0
  0
VERTEX
  5
425
  8
FISHER___PAYKEL
 62
     7
 10
573.1565738251165
 20
10.21624209410547
 30
0.0
  0
VERTEX
  5
426
  8
FISHER___PAYKEL
 62
     7
 10
573.0618344394057
 20
10.24971496482622
 30
0.0
  0
VERTEX
  5
427
  8
FISHER___PAYKEL
 62
     7
 10
572.9653118938031
 20
10.28075129176442
 30
0.0
  0
VERTEX
  5
428
  8
FISHER___PAYKEL
 62
     7
 10
572.8670032007651
 20
10.30930908781883
 30
0.0
  0
VERTEX
  5
429
  8
FISHER___PAYKEL
 62
     7
 10
572.7669053727477
 20
10.33534636588821
 30
0.0
  0
VERTEX
  5
42A
  8
FISHER___PAYKEL
 62
     7
 10
572.6650154222074
 20
10.35882113887133
 30
0.0
  0
VERTEX
  5
42B
  8
FISHER___PAYKEL
 62
     7
 10
572.5613303616003
 20
10.37969141966695
 30
0.0
  0
VERTEX
  5
42C
  8
FISHER___PAYKEL
 62
     7
 10
572.4558472033827
 20
10.39791522117384
 30
0.0
  0
VERTEX
  5
42D
  8
FISHER___PAYKEL
 62
     7
 10
572.348562960011
 20
10.41345055629075
 30
0.0
  0
VERTEX
  5
42E
  8
FISHER___PAYKEL
 62
     7
 10
572.2394746439413
 20
10.42625543791645
 30
0.0
  0
VERTEX
  5
42F
  8
FISHER___PAYKEL
 62
     7
 10
572.1285792676299
 20
10.43628787894971
 30
0.0
  0
VERTEX
  5
430
  8
FISHER___PAYKEL
 62
     7
 10
572.0158738435332
 20
10.44350589228928
 30
0.0
  0
VERTEX
  5
431
  8
FISHER___PAYKEL
 62
     7
 10
571.9013553841071
 20
10.44786749083393
 30
0.0
  0
VERTEX
  5
432
  8
FISHER___PAYKEL
 62
     7
 10
571.785020901808
 20
10.44933068748261
 30
0.0
 42
0.3980075876451505
  0
VERTEX
  5
433
  8
FISHER___PAYKEL
 62
     7
 10
567.7668820129194
 20
6.261858465260504
 30
0.0
  0
SEQEND
  5
434
  8
FISHER___PAYKEL
 62
     7
  0
POLYLINE
  5
435
  8
FISHER___PAYKEL
 62
     7
 66
     1
 10
0.0
 20
0.0
 30
0.0
 70
     1
  0
VERTEX
  5
436
  8
FISHER___PAYKEL
 62
     7
 10
566.6556320129196
 20
5.73621957637215
 30
0.0
  0
VERTEX
  5
437
  8
FISHER___PAYKEL
 62
     7
 10
566.6556320129193
 20
5.775025131928029
 30
0.0
 42
-0.4213434266058179
  0
VERTEX
  5
438
  8
FISHER___PAYKEL
 62
     7
 10
571.823826457365
 20
11.40183068748363
 30
0.0
  0
VERTEX
  5
439
  8
FISHER___PAYKEL
 62
     7
 10
571.966538138307
 20
11.40004144484515
 30
0.0
  0
VERTEX
  5
43A
  8
FISHER___PAYKEL
 62
     7
 10
572.1075877759955
 20
11.39469977046431
 30
0.0
  0
VERTEX
  5
43B
  8
FISHER___PAYKEL
 62
     7
 10
572.2469566377237
 20
11.38584474464305
 30
0.0
  0
VERTEX
  5
43C
  8
FISHER___PAYKEL
 62
     7
 10
572.3846259907848
 20
11.37351544768328
 30
0.0
  0
VERTEX
  5
43D
  8
FISHER___PAYKEL
 62
     7
 10
572.5205771024722
 20
11.35775095988691
 30
0.0
  0
VERTEX
  5
43E
  8
FISHER___PAYKEL
 62
     7
 10
572.6547912400792
 20
11.33859036155588
 30
0.0
  0
VERTEX
  5
43F
  8
FISHER___PAYKEL
 62
     7
 10
572.7872496708994
 20
11.3160727329921
 30
0.0
  0
VERTEX
  5
440
  8
FISHER___PAYKEL
 62
     7
 10
572.9179336622256
 20
11.29023715449749
 30
0.0
  0
VERTEX
  5
441
  8
FISHER___PAYKEL
 62
     7
 10
573.0468244813513
 20
11.26112270637397
 30
0.0
  0
VERTEX
  5
442
  8
FISHER___PAYKEL
 62
     7
 10
573.1739033955697
 20
11.22876846892347
 30
0.0
  0
VERTEX
  5
443
  8
FISHER___PAYKEL
 62
     7
 10
573.2991516721743
 20
11.19321352244791
 30
0.0
  0
VERTEX
  5
444
  8
FISHER___PAYKEL
 62
     7
 10
573.422550578458
 20
11.15449694724919
 30
0.0
  0
VERTEX
  5
445
  8
FISHER___PAYKEL
 62
     7
 10
573.5440813817145
 20
11.11265782362925
 30
0.0
  0
VERTEX
  5
446
  8
FISHER___PAYKEL
 62
     7
 10
573.663725349237
 20
11.06773523189001
 30
0.0
  0
VERTEX
  5
447
  8
FISHER___PAYKEL
 62
     7
 10
573.7814637483186
 20
11.01976825233339
 30
0.0
  0
VERTEX
  5
448
  8
FISHER___PAYKEL
 62
     7
 10
573.897277846253
 20
10.9687959652613
 30
0.0
  0
VERTEX
  5
449
  8
FISHER___PAYKEL
 62
     7
 10
574.0111489103332
 20
10.91485745097567
 30
0.0
  0
VERTEX
  5
44A
  8
FISHER___PAYKEL
 62
     7
 10
574.1230582078524
 20
10.85799178977841
 30
0.0
  0
VERTEX
  5
44B
  8
FISHER___PAYKEL
 62
     7
 10
574.232987006104
 20
10.79823806197146
 30
0.0
  0
VERTEX
  5
44C
  8
FISHER___PAYKEL
 62
     7
 10
574.3409165723814
 20
10.73563534785673
 30
0.0
  0
VERTEX
  5
44D
  8
FISHER___PAYKEL
 62
     7
 10
574.4468281739778
 20
10.67022272773613
 30
0.0
  0
VERTEX
  5
44E
  8
FISHER___PAYKEL
 62
     7
 10
574.5507030781864
 20
10.6020392819116
 30
0.0
  0
VERTEX
  5
44F
  8
FISHER___PAYKEL
 62
     7
 10
574.6525225523008
 20
10.53112409068505
 30
0.0
  0
VERTEX
  5
450
  8
FISHER___PAYKEL
 62
     7
 10
574.752267863614
 20
10.4575162343584
 30
0.0
  0
VERTEX
  5
451
  8
FISHER___PAYKEL
 62
     7
 10
574.8499202794194
 20
10.38125479323357
 30
0.0
  0
VERTEX
  5
452
  8
FISHER___PAYKEL
 62
     7
 10
574.9454610670102
 20
10.30237884761249
 30
0.0
  0
VERTEX
  5
453
  8
FISHER___PAYKEL
 62
     7
 10
575.0388714936798
 20
10.22092747779707
 30
0.0
  0
VERTEX
  5
454
  8
FISHER___PAYKEL
 62
     7
 10
575.1301328267216
 20
10.13693976408923
 30
0.0
  0
VERTEX
  5
455
  8
FISHER___PAYKEL
 62
     7
 10
575.2192263334287
 20
10.0504547867909
 30
0.0
  0
VERTEX
  5
456
  8
FISHER___PAYKEL
 62
     7
 10
575.3061332810944
 20
9.961511626203999
 30
0.0
  0
VERTEX
  5
457
  8
FISHER___PAYKEL
 62
     7
 10
575.3908349370122
 20
9.87014936263044
 30
0.0
  0
VERTEX
  5
458
  8
FISHER___PAYKEL
 62
     7
 10
575.4733125684751
 20
9.776407076372148
 30
0.0
  0
VERTEX
  5
459
  8
FISHER___PAYKEL
 62
     7
 10
575.5535474427766
 20
9.680323847731044
 30
0.0
  0
VERTEX
  5
45A
  8
FISHER___PAYKEL
 62
     7
 10
575.6315208272099
 20
9.581938757009048
 30
0.0
  0
VERTEX
  5
45B
  8
FISHER___PAYKEL
 62
     7
 10
575.7072139890684
 20
9.48129088450808
 30
0.0
  0
VERTEX
  5
45C
  8
FISHER___PAYKEL
 62
     7
 10
575.7806081956452
 20
9.378419310530063
 30
0.0
  0
VERTEX
  5
45D
  8
FISHER___PAYKEL
 62
     7
 10
575.8516847142338
 20
9.273363115376917
 30
0.0
  0
VERTEX
  5
45E
  8
FISHER___PAYKEL
 62
     7
 10
575.9204248121274
 20
9.166161379350559
 30
0.0
  0
VERTEX
  5
45F
  8
FISHER___PAYKEL
 62
     7
 10
575.9868097566193
 20
9.056853182752914
 30
0.0
  0
VERTEX
  5
460
  8
FISHER___PAYKEL
 62
     7
 10
576.0508208150029
 20
8.945477605885902
 30
0.0
  0
VERTEX
  5
461
  8
FISHER___PAYKEL
 62
     7
 10
576.1124392545713
 20
8.832073729051439
 30
0.0
  0
VERTEX
  5
462
  8
FISHER___PAYKEL
 62
     7
 10
576.171646342618
 20
8.716680632551451
 30
0.0
  0
VERTEX
  5
463
  8
FISHER___PAYKEL
 62
     7
 10
576.2284233464361
 20
8.599337396687856
 30
0.0
  0
VERTEX
  5
464
  8
FISHER___PAYKEL
 62
     7
 10
576.282751533319
 20
8.480083101762574
 30
0.0
  0
VERTEX
  5
465
  8
FISHER___PAYKEL
 62
     7
 10
576.3346121705599
 20
8.358956828077531
 30
0.0
  0
VERTEX
  5
466
  8
FISHER___PAYKEL
 62
     7
 10
576.3839865254522
 20
8.23599765593464
 30
0.0
  0
VERTEX
  5
467
  8
FISHER___PAYKEL
 62
     7
 10
576.4308558652892
 20
8.111244665635823
 30
0.0
  0
VERTEX
  5
468
  8
FISHER___PAYKEL
 62
     7
 10
576.475201457364
 20
7.984736937483007
 30
0.0
  0
VERTEX
  5
469
  8
FISHER___PAYKEL
 62
     7
 10
576.5170045689702
 20
7.856513551778106
 30
0.0
  0
VERTEX
  5
46A
  8
FISHER___PAYKEL
 62
     7
 10
576.5562464674008
 20
7.726613588823044
 30
0.0
  0
VERTEX
  5
46B
  8
FISHER___PAYKEL
 62
     7
 10
576.5929084199495
 20
7.595076128919739
 30
0.0
  0
VERTEX
  5
46C
  8
FISHER___PAYKEL
 62
     7
 10
576.6269716939091
 20
7.461940252370114
 30
0.0
  0
VERTEX
  5
46D
  8
FISHER___PAYKEL
 62
     7
 10
576.6584175565733
 20
7.32724503947609
 30
0.0
  0
VERTEX
  5
46E
  8
FISHER___PAYKEL
 62
     7
 10
576.6872272752352
 20
7.191029570539585
 30
0.0
  0
VERTEX
  5
46F
  8
FISHER___PAYKEL
 62
     7
 10
576.7133821171881
 20
7.053332925862522
 30
0.0
  0
VERTEX
  5
470
  8
FISHER___PAYKEL
 62
     7
 10
576.7368633497252
 20
6.914194185746819
 30
0.0
  0
VERTEX
  5
471
  8
FISHER___PAYKEL
 62
     7
 10
576.75765224014
 20
6.773652430494399
 30
0.0
  0
VERTEX
  5
472
  8
FISHER___PAYKEL
 62
     7
 10
576.7757300557257
 20
6.631746740407182
 30
0.0
  0
VERTEX
  5
473
  8
FISHER___PAYKEL
 62
     7
 10
576.7910780637756
 20
6.488516195787088
 30
0.0
  0
VERTEX
  5
474
  8
FISHER___PAYKEL
 62
     7
 10
576.8036775315829
 20
6.343999876936039
 30
0.0
  0
VERTEX
  5
475
  8
FISHER___PAYKEL
 62
     7
 10
576.8135097264411
 20
6.198236864155954
 30
0.0
  0
VERTEX
  5
476
  8
FISHER___PAYKEL
 62
     7
 10
576.8205559156432
 20
6.051266237748753
 30
0.0
  0
VERTEX
  5
477
  8
FISHER___PAYKEL
 62
     7
 10
576.8247973664828
 20
5.903127078016359
 30
0.0
  0
VERTEX
  5
478
  8
FISHER___PAYKEL
 62
     7
 10
576.8262153462531
 20
5.753858465260691
 30
0.0
  0
VERTEX
  5
479
  8
FISHER___PAYKEL
 62
     7
 10
576.8050486795858
 20
5.330525131927516
 30
0.0
  0
VERTEX
  5
47A
  8
FISHER___PAYKEL
 62
     7
 10
567.7668820129195
 20
5.330525131927512
 30
0.0
 42
0.4086989093520977
  0
VERTEX
  5
47B
  8
FISHER___PAYKEL
 62
     7
 10
572.039020901808
 20
1.076025131927217
 30
0.0
 42
0.21907862781659
  0
VERTEX
  5
47C
  8
FISHER___PAYKEL
 62
     7
 10
575.7784653462526
 20
2.772886243038974
 30
0.0
  0
VERTEX
  5
47D
  8
FISHER___PAYKEL
 62
     7
 10
576.5051875684761
 20
2.137886243038734
 30
0.0
 42
-0.2260595092226028
  0
VERTEX
  5
47E
  8
FISHER___PAYKEL
 62
     7
 10
571.9966875684752
 20
0.1058862430388743
 30
0.0
 42
-0.4254333308608243
  0
SEQEND
  5
47F
  8
FISHER___PAYKEL
 62
     7
  0
POLYLINE
  5
480
  8
FISHER___PAYKEL
 62
     7
 66
     1
 10
0.0
 20
0.0
 30
0.0
 70
     1
  0
VERTEX
  5
481
  8
FISHER___PAYKEL
 62
     7
 10
554.3376903462524
 20
15.80132235415067
 30
0.0
  0
VERTEX
  5
482
  8
FISHER___PAYKEL
 62
     7
 10
555.3854403462531
 20
15.80132235415067
 30
0.0
  0
VERTEX
  5
483
  8
FISHER___PAYKEL
 62
     7
 10
555.3854403462531
 20
9.137350131928125
 30
0.0
 42
-0.2874393700344037
  0
VERTEX
  5
484
  8
FISHER___PAYKEL
 62
     7
 10
559.3153847906972
 20
11.40218346526197
 30
0.0
 42
-0.4554380385623996
  0
VERTEX
  5
485
  8
FISHER___PAYKEL
 62
     7
 10
563.6721903462525
 20
6.960711243038982
 30
0.0
  0
VERTEX
  5
486
  8
FISHER___PAYKEL
 62
     7
 10
563.6721903462524
 20
0.3602390208166071
 30
0.0
  0
VERTEX
  5
487
  8
FISHER___PAYKEL
 62
     7
 10
562.6279681240305
 20
0.3602390208166071
 30
0.0
  0
VERTEX
  5
488
  8
FISHER___PAYKEL
 62
     7
 10
562.6279681240305
 20
6.766683465260485
 30
0.0
  0
VERTEX
  5
489
  8
FISHER___PAYKEL
 62
     7
 10
562.6270443674312
 20
6.87030238272573
 30
0.0
  0
VERTEX
  5
48A
  8
FISHER___PAYKEL
 62
     7
 10
562.6242781037872
 20
6.972789101857234
 30
0.0
  0
VERTEX
  5
48B
  8
FISHER___PAYKEL
 62
     7
 10
562.6196768423304
 20
7.074127635258757
 30
0.0
  0
VERTEX
  5
48C
  8
FISHER___PAYKEL
 62
     7
 10
562.6132480922922
 20
7.174301995534059
 30
0.0
  0
VERTEX
  5
48D
  8
FISHER___PAYKEL
 62
     7
 10
562.6049993629042
 20
7.273296195286898
 30
0.0
  0
VERTEX
  5
48E
  8
FISHER___PAYKEL
 62
     7
 10
562.5949381633982
 20
7.371094247121036
 30
0.0
  0
VERTEX
  5
48F
  8
FISHER___PAYKEL
 62
     7
 10
562.5830720030053
 20
7.46768016364023
 30
0.0
  0
VERTEX
  5
490
  8
FISHER___PAYKEL
 62
     7
 10
562.5694083909576
 20
7.563037957448243
 30
0.0
  0
VERTEX
  5
491
  8
FISHER___PAYKEL
 62
     7
 10
562.5539548364864
 20
7.657151641148833
 30
0.0
  0
VERTEX
  5
492
  8
FISHER___PAYKEL
 62
     7
 10
562.536718848823
 20
7.75000522734576
 30
0.0
  0
VERTEX
  5
493
  8
FISHER___PAYKEL
 62
     7
 10
562.5177079371995
 20
7.841582728642784
 30
0.0
  0
VERTEX
  5
494
  8
FISHER___PAYKEL
 62
     7
 10
562.496929610847
 20
7.931868157643665
 30
0.0
  0
VERTEX
  5
495
  8
FISHER___PAYKEL
 62
     7
 10
562.4743913789973
 20
8.020845526952163
 30
0.0
  0
VERTEX
  5
496
  8
FISHER___PAYKEL
 62
     7
 10
562.450100750882
 20
8.108498849172035
 30
0.0
  0
VERTEX
  5
497
  8
FISHER___PAYKEL
 62
     7
 10
562.4240652357325
 20
8.194812136907043
 30
0.0
  0
VERTEX
  5
498
  8
FISHER___PAYKEL
 62
     7
 10
562.3962923427806
 20
8.279769402760948
 30
0.0
  0
VERTEX
  5
499
  8
FISHER___PAYKEL
 62
     7
 10
562.3667895812578
 20
8.363354659337508
 30
0.0
  0
VERTEX
  5
49A
  8
FISHER___PAYKEL
 62
     7
 10
562.3355644603953
 20
8.445551919240483
 30
0.0
  0
VERTEX
  5
49B
  8
FISHER___PAYKEL
 62
     7
 10
562.3026244894252
 20
8.526345195073635
 30
0.0
  0
VERTEX
  5
49C
  8
FISHER___PAYKEL
 62
     7
 10
562.2679771775788
 20
8.605718499440721
 30
0.0
  0
VERTEX
  5
49D
  8
FISHER___PAYKEL
 62
     7
 10
562.2316300340876
 20
8.683655844945502
 30
0.0
  0
VERTEX
  5
49E
  8
FISHER___PAYKEL
 62
     7
 10
562.1935905681835
 20
8.760141244191736
 30
0.0
  0
VERTEX
  5
49F
  8
FISHER___PAYKEL
 62
     7
 10
562.1538662890976
 20
8.835158709783185
 30
0.0
  0
VERTEX
  5
4A0
  8
FISHER___PAYKEL
 62
     7
 10
562.1124647060618
 20
8.908692254323606
 30
0.0
  0
VERTEX
  5
4A1
  8
FISHER___PAYKEL
 62
     7
 10
562.0693933283076
 20
8.980725890416762
 30
0.0
  0
VERTEX
  5
4A2
  8
FISHER___PAYKEL
 62
     7
 10
562.0246596650666
 20
9.051243630666413
 30
0.0
  0
VERTEX
  5
4A3
  8
FISHER___PAYKEL
 62
     7
 10
561.9782712255701
 20
9.120229487676315
 30
0.0
  0
VERTEX
  5
4A4
  8
FISHER___PAYKEL
 62
     7
 10
561.9302355190501
 20
9.187667474050231
 30
0.0
  0
VERTEX
  5
4A5
  8
FISHER___PAYKEL
 62
     7
 10
561.880560054738
 20
9.25354160239192
 30
0.0
  0
VERTEX
  5
4A6
  8
FISHER___PAYKEL
 62
     7
 10
561.8292523418652
 20
9.317835885305144
 30
0.0
  0
VERTEX
  5
4A7
  8
FISHER___PAYKEL
 62
     7
 10
561.7763198896633
 20
9.380534335393655
 30
0.0
  0
VERTEX
  5
4A8
  8
FISHER___PAYKEL
 62
     7
 10
561.7217702073641
 20
9.441620965261222
 30
0.0
  0
VERTEX
  5
4A9
  8
FISHER___PAYKEL
 62
     7
 10
561.665610804199
 20
9.5010797875116
 30
0.0
  0
VERTEX
  5
4AA
  8
FISHER___PAYKEL
 62
     7
 10
561.6078491893995
 20
9.558894814748552
 30
0.0
  0
VERTEX
  5
4AB
  8
FISHER___PAYKEL
 62
     7
 10
561.5484928721974
 20
9.615050059575832
 30
0.0
  0
VERTEX
  5
4AC
  8
FISHER___PAYKEL
 62
     7
 10
561.4875493618239
 20
9.669529534597205
 30
0.0
  0
VERTEX
  5
4AD
  8
FISHER___PAYKEL
 62
     7
 10
561.4250261675109
 20
9.72231725241643
 30
0.0
  0
VERTEX
  5
4AE
  8
FISHER___PAYKEL
 62
     7
 10
561.3609307984897
 20
9.773397225637265
 30
0.0
  0
VERTEX
  5
4AF
  8
FISHER___PAYKEL
 62
     7
 10
561.2952707639921
 20
9.82275346686347
 30
0.0
  0
VERTEX
  5
4B0
  8
FISHER___PAYKEL
 62
     7
 10
561.2280535732496
 20
9.870369988698803
 30
0.0
  0
VERTEX
  5
4B1
  8
FISHER___PAYKEL
 62
     7
 10
561.1592867354938
 20
9.916230803747027
 30
0.0
  0
VERTEX
  5
4B2
  8
FISHER___PAYKEL
 62
     7
 10
561.0889777599562
 20
9.960319924611902
 30
0.0
  0
VERTEX
  5
4B3
  8
FISHER___PAYKEL
 62
     7
 10
561.0171341558682
 20
10.00262136389719
 30
0.0
  0
VERTEX
  5
4B4
  8
FISHER___PAYKEL
 62
     7
 10
560.9437634324618
 20
10.04311913420664
 30
0.0
  0
VERTEX
  5
4B5
  8
FISHER___PAYKEL
 62
     7
 10
560.8688730989683
 20
10.08179724814403
 30
0.0
  0
VERTEX
  5
4B6
  8
FISHER___PAYKEL
 62
     7
 10
560.7924706646193
 20
10.1186397183131
 30
0.0
  0
VERTEX
  5
4B7
  8
FISHER___PAYKEL
 62
     7
 10
560.7145636386462
 20
10.15363055731762
 30
0.0
  0
VERTEX
  5
4B8
  8
FISHER___PAYKEL
 62
     7
 10
560.6351595302808
 20
10.18675377776135
 30
0.0
  0
VERTEX
  5
4B9
  8
FISHER___PAYKEL
 62
     7
 10
560.5542658487545
 20
10.21799339224805
 30
0.0
  0
VERTEX
  5
4BA
  8
FISHER___PAYKEL
 62
     7
 10
560.4718901032992
 20
10.24733341338148
 30
0.0
  0
VERTEX
  5
4BB
  8
FISHER___PAYKEL
 62
     7
 10
560.3880398031461
 20
10.27475785376539
 30
0.0
  0
VERTEX
  5
4BC
  8
FISHER___PAYKEL
 62
     7
 10
560.3027224575269
 20
10.30025072600356
 30
0.0
  0
VERTEX
  5
4BD
  8
FISHER___PAYKEL
 62
     7
 10
560.2159455756731
 20
10.32379604269973
 30
0.0
  0
VERTEX
  5
4BE
  8
FISHER___PAYKEL
 62
     7
 10
560.1277166668164
 20
10.34537781645766
 30
0.0
  0
VERTEX
  5
4BF
  8
FISHER___PAYKEL
 62
     7
 10
560.0380432401882
 20
10.36498005988113
 30
0.0
  0
VERTEX
  5
4C0
  8
FISHER___PAYKEL
 62
     7
 10
559.9469328050202
 20
10.38258678557388
 30
0.0
  0
VERTEX
  5
4C1
  8
FISHER___PAYKEL
 62
     7
 10
559.854392870544
 20
10.39818200613968
 30
0.0
  0
VERTEX
  5
4C2
  8
FISHER___PAYKEL
 62
     7
 10
559.760430945991
 20
10.41174973418228
 30
0.0
  0
VERTEX
  5
4C3
  8
FISHER___PAYKEL
 62
     7
 10
559.665054540593
 20
10.42327398230545
 30
0.0
  0
VERTEX
  5
4C4
  8
FISHER___PAYKEL
 62
     7
 10
559.5682711635812
 20
10.43273876311295
 30
0.0
  0
VERTEX
  5
4C5
  8
FISHER___PAYKEL
 62
     7
 10
559.4700883241875
 20
10.44012808920853
 30
0.0
  0
VERTEX
  5
4C6
  8
FISHER___PAYKEL
 62
     7
 10
559.3705135316434
 20
10.44542597319596
 30
0.0
  0
VERTEX
  5
4C7
  8
FISHER___PAYKEL
 62
     7
 10
559.2695542951806
 20
10.44861642767899
 30
0.0
  0
VERTEX
  5
4C8
  8
FISHER___PAYKEL
 62
     7
 10
559.1672181240303
 20
10.44968346526143
 30
0.0
 42
0.4299067896965518
  0
VERTEX
  5
4C9
  8
FISHER___PAYKEL
 62
     7
 10
555.385440346253
 20
6.600877909706014
 30
0.0
  0
VERTEX
  5
4CA
  8
FISHER___PAYKEL
 62
     7
 10
555.3854403462531
 20
0.3602390208166071
 30
0.0
  0
VERTEX
  5
4CB
  8
FISHER___PAYKEL
 62
     7
 10
554.3376903462524
 20
0.3602390208166071
 30
0.0
  0
SEQEND
  5
4CC
  8
FISHER___PAYKEL
 62
     7
  0
POLYLINE
  5
4CD
  8
FISHER___PAYKEL
 62
     7
 66
     1
 10
0.0
 20
0.0
 30
0.0
 70
     1
  0
VERTEX
  5
4CE
  8
FISHER___PAYKEL
 62
     7
 10
541.4221431240305
 20
5.710466798594553
 30
0.0
  0
VERTEX
  5
4CF
  8
FISHER___PAYKEL
 62
     7
 10
541.4221431240305
 20
5.756327909705304
 30
0.0
 42
-0.4115266345490027
  0
VERTEX
  5
4D0
  8
FISHER___PAYKEL
 62
     7
 10
546.9783931240311
 20
11.40077235415047
 30
0.0
 42
-0.2186256176819008
  0
VERTEX
  5
4D1
  8
FISHER___PAYKEL
 62
     7
 10
551.3387264573641
 20
9.414633465261007
 30
0.0
  0
VERTEX
  5
4D2
  8
FISHER___PAYKEL
 62
     7
 10
550.590837568475
 20
8.652633465261216
 30
0.0
 42
0.2143663922323804
  0
VERTEX
  5
4D3
  8
FISHER___PAYKEL
 62
     7
 10
546.9572264573646
 20
10.43063346526029
 30
0.0
 42
0.419717726860191
  0
VERTEX
  5
4D4
  8
FISHER___PAYKEL
 62
     7
 10
542.5545597906971
 20
5.795133465261191
 30
0.0
  0
VERTEX
  5
4D5
  8
FISHER___PAYKEL
 62
     7
 10
542.554559790697
 20
5.756327909705301
 30
0.0
 42
0.4177603780618728
  0
VERTEX
  5
4D6
  8
FISHER___PAYKEL
 62
     7
 10
547.0418931240312
 20
1.078494576371136
 30
0.0
 42
0.2175915920071559
  0
VERTEX
  5
4D7
  8
FISHER___PAYKEL
 62
     7
 10
550.6966709018079
 20
2.874133465260924
 30
0.0
  0
VERTEX
  5
4D8
  8
FISHER___PAYKEL
 62
     7
 10
551.4233931240308
 20
2.242661243038528
 30
0.0
 42
-0.2307847793316422
  0
VERTEX
  5
4D9
  8
FISHER___PAYKEL
 62
     7
 10
546.9783931240311
 20
0.1048279097056417
 30
0.0
 42
-0.4141510715367758
  0
SEQEND
  5
4DA
  8
FISHER___PAYKEL
 62
     7
  0
POLYLINE
  5
4DB
  8
FISHER___PAYKEL
 62
     7
 66
     1
 10
0.0
 20
0.0
 30
0.0
 70
     1
  0
VERTEX
  5
4DC
  8
FISHER___PAYKEL
 62
     7
 10
529.1024375684749
 20
11.15030013192745
 30
0.0
  0
VERTEX
  5
4DD
  8
FISHER___PAYKEL
 62
     7
 10
530.1501875684746
 20
11.15030013192745
 30
0.0
  0
VERTEX
  5
4DE
  8
FISHER___PAYKEL
 62
     7
 10
530.1501875684745
 20
9.139466798594624
 30
0.0
 42
-0.286699517473275
  0
VERTEX
  5
4DF
  8
FISHER___PAYKEL
 62
     7
 10
534.0801320129198
 20
11.4007723541504
 30
0.0
 42
-0.4548343103080467
  0
VERTEX
  5
4E0
  8
FISHER___PAYKEL
 62
     7
 10
538.4404653462527
 20
6.962827909704632
 30
0.0
  0
VERTEX
  5
4E1
  8
FISHER___PAYKEL
 62
     7
 10
538.4404653462527
 20
0.3588279097052691
 30
0.0
  0
VERTEX
  5
4E2
  8
FISHER___PAYKEL
 62
     7
 10
537.3962431240309
 20
0.3588279097052691
 30
0.0
  0
VERTEX
  5
4E3
  8
FISHER___PAYKEL
 62
     7
 10
537.3962431240309
 20
6.768800131927946
 30
0.0
  0
VERTEX
  5
4E4
  8
FISHER___PAYKEL
 62
     7
 10
537.3953193539741
 20
6.87241904939315
 30
0.0
  0
VERTEX
  5
4E5
  8
FISHER___PAYKEL
 62
     7
 10
537.3925529961284
 20
6.974905768524613
 30
0.0
  0
VERTEX
  5
4E6
  8
FISHER___PAYKEL
 62
     7
 10
537.3879514789809
 20
7.076244301926097
 30
0.0
  0
VERTEX
  5
4E7
  8
FISHER___PAYKEL
 62
     7
 10
537.3815222310187
 20
7.17641866220136
 30
0.0
  0
VERTEX
  5
4E8
  8
FISHER___PAYKEL
 62
     7
 10
537.3732726807291
 20
7.275412861954163
 30
0.0
  0
VERTEX
  5
4E9
  8
FISHER___PAYKEL
 62
     7
 10
537.3632102565991
 20
7.373210913788264
 30
0.0
  0
VERTEX
  5
4EA
  8
FISHER___PAYKEL
 62
     7
 10
537.3513423871161
 20
7.469796830307424
 30
0.0
  0
VERTEX
  5
4EB
  8
FISHER___PAYKEL
 62
     7
 10
537.337676500767
 20
7.565154624115404
 30
0.0
  0
VERTEX
  5
4EC
  8
FISHER___PAYKEL
 62
     7
 10
537.322220026039
 20
7.659268307815962
 30
0.0
  0
VERTEX
  5
4ED
  8
FISHER___PAYKEL
 62
     7
 10
537.3049803914191
 20
7.752121894012857
 30
0.0
  0
VERTEX
  5
4EE
  8
FISHER___PAYKEL
 62
     7
 10
537.2859650253947
 20
7.843699395309851
 30
0.0
  0
VERTEX
  5
4EF
  8
FISHER___PAYKEL
 62
     7
 10
537.2651813564528
 20
7.933984824310704
 30
0.0
  0
VERTEX
  5
4F0
  8
FISHER___PAYKEL
 62
     7
 10
537.2426368130805
 20
8.022962193619172
 30
0.0
  0
VERTEX
  5
4F1
  8
FISHER___PAYKEL
 62
     7
 10
537.218338823765
 20
8.110615515839019
 30
0.0
  0
VERTEX
  5
4F2
  8
FISHER___PAYKEL
 62
     7
 10
537.1922948169935
 20
8.196928803574004
 30
0.0
  0
VERTEX
  5
4F3
  8
FISHER___PAYKEL
 62
     7
 10
537.1645122212531
 20
8.281886069427884
 30
0.0
  0
VERTEX
  5
4F4
  8
FISHER___PAYKEL
 62
     7
 10
537.1349984650309
 20
8.365471326004421
 30
0.0
  0
VERTEX
  5
4F5
  8
FISHER___PAYKEL
 62
     7
 10
537.1037609768141
 20
8.447668585907373
 30
0.0
  0
VERTEX
  5
4F6
  8
FISHER___PAYKEL
 62
     7
 10
537.0708071850897
 20
8.528461861740503
 30
0.0
  0
VERTEX
  5
4F7
  8
FISHER___PAYKEL
 62
     7
 10
537.036144518345
 20
8.607835166107566
 30
0.0
  0
VERTEX
  5
4F8
  8
FISHER___PAYKEL
 62
     7
 10
536.9997804050671
 20
8.685772511612328
 30
0.0
  0
VERTEX
  5
4F9
  8
FISHER___PAYKEL
 62
     7
 10
536.9617222737432
 20
8.762257910858544
 30
0.0
  0
VERTEX
  5
4FA
  8
FISHER___PAYKEL
 62
     7
 10
536.9219775528604
 20
8.837275376449975
 30
0.0
  0
VERTEX
  5
4FB
  8
FISHER___PAYKEL
 62
     7
 10
536.8805536709058
 20
8.91080892099038
 30
0.0
  0
VERTEX
  5
4FC
  8
FISHER___PAYKEL
 62
     7
 10
536.8374580563666
 20
8.98284255708352
 30
0.0
  0
VERTEX
  5
4FD
  8
FISHER___PAYKEL
 62
     7
 10
536.7926981377298
 20
9.053360297333153
 30
0.0
  0
VERTEX
  5
4FE
  8
FISHER___PAYKEL
 62
     7
 10
536.7462813434827
 20
9.122346154343042
 30
0.0
  0
VERTEX
  5
4FF
  8
FISHER___PAYKEL
 62
     7
 10
536.6982151021125
 20
9.189784140716945
 30
0.0
  0
VERTEX
  5
500
  8
FISHER___PAYKEL
 62
     7
 10
536.6485068421061
 20
9.255658269058621
 30
0.0
  0
VERTEX
  5
501
  8
FISHER___PAYKEL
 62
     7
 10
536.5971639919509
 20
9.31995255197183
 30
0.0
  0
VERTEX
  5
502
  8
FISHER___PAYKEL
 62
     7
 10
536.5441939801337
 20
9.382651002060332
 30
0.0
  0
VERTEX
  5
503
  8
FISHER___PAYKEL
 62
     7
 10
536.489604235142
 20
9.443737631927888
 30
0.0
  0
VERTEX
  5
504
  8
FISHER___PAYKEL
 62
     7
 10
536.4334021854628
 20
9.503196454178255
 30
0.0
  0
VERTEX
  5
505
  8
FISHER___PAYKEL
 62
     7
 10
536.3755952595832
 20
9.561011481415196
 30
0.0
  0
VERTEX
  5
506
  8
FISHER___PAYKEL
 62
     7
 10
536.3161908859904
 20
9.61716672624247
 30
0.0
  0
VERTEX
  5
507
  8
FISHER___PAYKEL
 62
     7
 10
536.2551964931715
 20
9.671646201263833
 30
0.0
  0
VERTEX
  5
508
  8
FISHER___PAYKEL
 62
     7
 10
536.1926195096137
 20
9.72443391908305
 30
0.0
  0
VERTEX
  5
509
  8
FISHER___PAYKEL
 62
     7
 10
536.1284673638042
 20
9.775513892303877
 30
0.0
  0
VERTEX
  5
50A
  8
FISHER___PAYKEL
 62
     7
 10
536.0627474842299
 20
9.824870133530075
 30
0.0
  0
VERTEX
  5
50B
  8
FISHER___PAYKEL
 62
     7
 10
535.9954672993782
 20
9.872486655365403
 30
0.0
  0
VERTEX
  5
50C
  8
FISHER___PAYKEL
 62
     7
 10
535.9266342377362
 20
9.918347470413623
 30
0.0
  0
VERTEX
  5
50D
  8
FISHER___PAYKEL
 62
     7
 10
535.8562557277908
 20
9.962436591278493
 30
0.0
  0
VERTEX
  5
50E
  8
FISHER___PAYKEL
 62
     7
 10
535.7843391980293
 20
10.00473803056377
 30
0.0
  0
VERTEX
  5
50F
  8
FISHER___PAYKEL
 62
     7
 10
535.710892076939
 20
10.04523580087323
 30
0.0
  0
VERTEX
  5
510
  8
FISHER___PAYKEL
 62
     7
 10
535.6359217930068
 20
10.0839139148106
 30
0.0
  0
VERTEX
  5
511
  8
FISHER___PAYKEL
 62
     7
 10
535.55943577472
 20
10.12075638497967
 30
0.0
  0
VERTEX
  5
512
  8
FISHER___PAYKEL
 62
     7
 10
535.4814414505657
 20
10.15574722398419
 30
0.0
  0
VERTEX
  5
513
  8
FISHER___PAYKEL
 62
     7
 10
535.4019462490311
 20
10.18887044442792
 30
0.0
  0
VERTEX
  5
514
  8
FISHER___PAYKEL
 62
     7
 10
535.3209575986032
 20
10.22011005891462
 30
0.0
  0
VERTEX
  5
515
  8
FISHER___PAYKEL
 62
     7
 10
535.2384829277692
 20
10.24945008004804
 30
0.0
  0
VERTEX
  5
516
  8
FISHER___PAYKEL
 62
     7
 10
535.1545296650163
 20
10.27687452043195
 30
0.0
  0
VERTEX
  5
517
  8
FISHER___PAYKEL
 62
     7
 10
535.0691052388315
 20
10.30236739267011
 30
0.0
  0
VERTEX
  5
518
  8
FISHER___PAYKEL
 62
     7
 10
534.9822170777021
 20
10.32591270936628
 30
0.0
  0
VERTEX
  5
519
  8
FISHER___PAYKEL
 62
     7
 10
534.8938726101152
 20
10.34749448312422
 30
0.0
  0
VERTEX
  5
51A
  8
FISHER___PAYKEL
 62
     7
 10
534.8040792645579
 20
10.36709672654768
 30
0.0
  0
VERTEX
  5
51B
  8
FISHER___PAYKEL
 62
     7
 10
534.7128444695173
 20
10.38470345224043
 30
0.0
  0
VERTEX
  5
51C
  8
FISHER___PAYKEL
 62
     7
 10
534.6201756534806
 20
10.40029867280623
 30
0.0
  0
VERTEX
  5
51D
  8
FISHER___PAYKEL
 62
     7
 10
534.5260802449351
 20
10.41386640084884
 30
0.0
  0
VERTEX
  5
51E
  8
FISHER___PAYKEL
 62
     7
 10
534.4305656723677
 20
10.425390648972
 30
0.0
  0
VERTEX
  5
51F
  8
FISHER___PAYKEL
 62
     7
 10
534.3336393642658
 20
10.4348554297795
 30
0.0
  0
VERTEX
  5
520
  8
FISHER___PAYKEL
 62
     7
 10
534.2353087491163
 20
10.44224475587508
 30
0.0
  0
VERTEX
  5
521
  8
FISHER___PAYKEL
 62
     7
 10
534.1355812554061
 20
10.44754263986251
 30
0.0
  0
VERTEX
  5
522
  8
FISHER___PAYKEL
 62
     7
 10
534.034464311623
 20
10.45073309434554
 30
0.0
  0
VERTEX
  5
523
  8
FISHER___PAYKEL
 62
     7
 10
533.9319653462537
 20
10.45180013192782
 30
0.0
 42
0.4303950478934583
  0
VERTEX
  5
524
  8
FISHER___PAYKEL
 62
     7
 10
530.1501875684747
 20
6.599466798594678
 30
0.0
  0
VERTEX
  5
525
  8
FISHER___PAYKEL
 62
     7
 10
530.1501875684746
 20
0.3588279097052691
 30
0.0
  0
VERTEX
  5
526
  8
FISHER___PAYKEL
 62
     7
 10
529.1024375684749
 20
0.3588279097052691
 30
0.0
  0
SEQEND
  5
527
  8
FISHER___PAYKEL
 62
     7
  0
POLYLINE
  5
528
  8
FISHER___PAYKEL
 62
     7
 66
     1
 10
0.0
 20
0.0
 30
0.0
 70
     1
  0
VERTEX
  5
529
  8
FISHER___PAYKEL
 62
     7
 10
523.6594292351413
 20
15.16843902081609
 30
0.0
  0
VERTEX
  5
52A
  8
FISHER___PAYKEL
 62
     7
 10
524.7706792351421
 20
15.16843902081609
 30
0.0
  0
VERTEX
  5
52B
  8
FISHER___PAYKEL
 62
     7
 10
524.7706792351421
 20
0.3623556874831593
 30
0.0
  0
VERTEX
  5
52C
  8
FISHER___PAYKEL
 62
     7
 10
523.6594292351413
 20
0.3623556874831593
 30
0.0
  0
SEQEND
  5
52D
  8
FISHER___PAYKEL
 62
     7
  0
POLYLINE
  5
52E
  8
FISHER___PAYKEL
 62
     7
 66
     1
 10
0.0
 20
0.0
 30
0.0
 70
     1
  0
VERTEX
  5
52F
  8
FISHER___PAYKEL
 62
     7
 10
5.048226457363171
 20
56.97542790970465
 30
0.0
  0
VERTEX
  5
530
  8
FISHER___PAYKEL
 62
     7
 10
5.048226457363171
 20
57.01776124303842
 30
0.0
  0
VERTEX
  5
531
  8
FISHER___PAYKEL
 62
     7
 10
5.046790431213845
 20
57.1793033314411
 30
0.0
  0
VERTEX
  5
532
  8
FISHER___PAYKEL
 62
     7
 10
5.042495002725856
 20
57.34043103945233
 30
0.0
  0
VERTEX
  5
533
  8
FISHER___PAYKEL
 62
     7
 10
5.035359146839186
 20
57.50107621877704
 30
0.0
  0
VERTEX
  5
534
  8
FISHER___PAYKEL
 62
     7
 10
5.025401838493815
 20
57.66117072112014
 30
0.0
  0
VERTEX
  5
535
  8
FISHER___PAYKEL
 62
     7
 10
5.012642052629728
 20
57.82064639818655
 30
0.0
  0
VERTEX
  5
536
  8
FISHER___PAYKEL
 62
     7
 10
4.997098764186905
 20
57.97943510168118
 30
0.0
  0
VERTEX
  5
537
  8
FISHER___PAYKEL
 62
     7
 10
4.978790948105331
 20
58.13746868330895
 30
0.0
  0
VERTEX
  5
538
  8
FISHER___PAYKEL
 62
     7
 10
4.957737579324984
 20
58.29467899477477
 30
0.0
  0
VERTEX
  5
539
  8
FISHER___PAYKEL
 62
     7
 10
4.93395763278585
 20
58.45099788778355
 30
0.0
  0
VERTEX
  5
53A
  8
FISHER___PAYKEL
 62
     7
 10
4.907470083427908
 20
58.60635721404022
 30
0.0
  0
VERTEX
  5
53B
  8
FISHER___PAYKEL
 62
     7
 10
4.878293906191141
 20
58.76068882524967
 30
0.0
  0
VERTEX
  5
53C
  8
FISHER___PAYKEL
 62
     7
 10
4.846448076015532
 20
58.91392457311686
 30
0.0
  0
VERTEX
  5
53D
  8
FISHER___PAYKEL
 62
     7
 10
4.811951567841064
 20
59.06599630934667
 30
0.0
  0
VERTEX
  5
53E
  8
FISHER___PAYKEL
 62
     7
 10
4.774823356607715
 20
59.21683588564402
 30
0.0
  0
VERTEX
  5
53F
  8
FISHER___PAYKEL
 62
     7
 10
4.735082417255471
 20
59.36637515371383
 30
0.0
  0
VERTEX
  5
540
  8
FISHER___PAYKEL
 62
     7
 10
4.692747724724313
 20
59.51454596526102
 30
0.0
  0
VERTEX
  5
541
  8
FISHER___PAYKEL
 62
     7
 10
4.647838253954223
 20
59.6612801719905
 30
0.0
  0
VERTEX
  5
542
  8
FISHER___PAYKEL
 62
     7
 10
4.600372979885183
 20
59.80650962560718
 30
0.0
  0
VERTEX
  5
543
  8
FISHER___PAYKEL
 62
     7
 10
4.550370877457175
 20
59.95016617781599
 30
0.0
  0
VERTEX
  5
544
  8
FISHER___PAYKEL
 62
     7
 10
4.497850921610182
 20
60.09218168032183
 30
0.0
  0
VERTEX
  5
545
  8
FISHER___PAYKEL
 62
     7
 10
4.442832087284184
 20
60.23248798482962
 30
0.0
  0
VERTEX
  5
546
  8
FISHER___PAYKEL
 62
     7
 10
4.385333349419165
 20
60.37101694304428
 30
0.0
  0
VERTEX
  5
547
  8
FISHER___PAYKEL
 62
     7
 10
4.325373682955107
 20
60.50770040667072
 30
0.0
  0
VERTEX
  5
548
  8
FISHER___PAYKEL
 62
     7
 10
4.262972062831992
 20
60.64247022741387
 30
0.0
  0
VERTEX
  5
549
  8
FISHER___PAYKEL
 62
     7
 10
4.1981474639898
 20
60.77525825697862
 30
0.0
  0
VERTEX
  5
54A
  8
FISHER___PAYKEL
 62
     7
 10
4.130918861368517
 20
60.90599634706991
 30
0.0
  0
VERTEX
  5
54B
  8
FISHER___PAYKEL
 62
     7
 10
4.061305229908122
 20
61.03461634939264
 30
0.0
  0
VERTEX
  5
54C
  8
FISHER___PAYKEL
 62
     7
 10
3.989325544548597
 20
61.16105011565173
 30
0.0
  0
VERTEX
  5
54D
  8
FISHER___PAYKEL
 62
     7
 10
3.914998780229926
 20
61.28522949755209
 30
0.0
  0
VERTEX
  5
54E
  8
FISHER___PAYKEL
 62
     7
 10
3.838343911892091
 20
61.40708634679865
 30
0.0
  0
VERTEX
  5
54F
  8
FISHER___PAYKEL
 62
     7
 10
3.759379914475072
 20
61.52655251509631
 30
0.0
  0
VERTEX
  5
550
  8
FISHER___PAYKEL
 62
     7
 10
3.678125762918853
 20
61.64355985415
 30
0.0
  0
VERTEX
  5
551
  8
FISHER___PAYKEL
 62
     7
 10
3.594600432163416
 20
61.75804021566462
 30
0.0
  0
VERTEX
  5
552
  8
FISHER___PAYKEL
 62
     7
 10
3.508822897148741
 20
61.86992545134509
 30
0.0
  0
VERTEX
  5
553
  8
FISHER___PAYKEL
 62
     7
 10
3.420812132814814
 20
61.97914741289633
 30
0.0
  0
VERTEX
  5
554
  8
FISHER___PAYKEL
 62
     7
 10
3.330587114101613
 20
62.08563795202326
 30
0.0
  0
VERTEX
  5
555
  8
FISHER___PAYKEL
 62
     7
 10
3.238166815949123
 20
62.18932892043078
 30
0.0
  0
VERTEX
  5
556
  8
FISHER___PAYKEL
 62
     7
 10
3.143570213297324
 20
62.29015216982382
 30
0.0
  0
VERTEX
  5
557
  8
FISHER___PAYKEL
 62
     7
 10
3.0468162810862
 20
62.38803955190728
 30
0.0
  0
VERTEX
  5
558
  8
FISHER___PAYKEL
 62
     7
 10
2.947923994255731
 20
62.48292291838609
 30
0.0
  0
VERTEX
  5
559
  8
FISHER___PAYKEL
 62
     7
 10
2.846912327745902
 20
62.57473412096517
 30
0.0
  0
VERTEX
  5
55A
  8
FISHER___PAYKEL
 62
     7
 10
2.743800256496692
 20
62.66340501134941
 30
0.0
  0
VERTEX
  5
55B
  8
FISHER___PAYKEL
 62
     7
 10
2.638606755448085
 20
62.74886744124375
 30
0.0
  0
VERTEX
  5
55C
  8
FISHER___PAYKEL
 62
     7
 10
2.531350799540062
 20
62.83105326235309
 30
0.0
  0
VERTEX
  5
55D
  8
FISHER___PAYKEL
 62
     7
 10
2.422051363712606
 20
62.90989432638236
 30
0.0
  0
VERTEX
  5
55E
  8
FISHER___PAYKEL
 62
     7
 10
2.3107274229057
 20
62.98532248503646
 30
0.0
  0
VERTEX
  5
55F
  8
FISHER___PAYKEL
 62
     7
 10
2.197397952059323
 20
63.0572695900203
 30
0.0
  0
VERTEX
  5
560
  8
FISHER___PAYKEL
 62
     7
 10
2.08208192611346
 20
63.12566749303883
 30
0.0
  0
VERTEX
  5
561
  8
FISHER___PAYKEL
 62
     7
 10
1.964798320008092
 20
63.19044804579694
 30
0.0
  0
VERTEX
  5
562
  8
FISHER___PAYKEL
 62
     7
 10
1.845566108683201
 20
63.25154309999955
 30
0.0
  0
VERTEX
  5
563
  8
FISHER___PAYKEL
 62
     7
 10
1.724404267078769
 20
63.30888450735156
 30
0.0
  0
VERTEX
  5
564
  8
FISHER___PAYKEL
 62
     7
 10
1.601331770134779
 20
63.36240411955792
 30
0.0
  0
VERTEX
  5
565
  8
FISHER___PAYKEL
 62
     7
 10
1.476367592791212
 20
63.41203378832351
 30
0.0
  0
VERTEX
  5
566
  8
FISHER___PAYKEL
 62
     7
 10
1.349530709988051
 20
63.45770536535326
 30
0.0
  0
VERTEX
  5
567
  8
FISHER___PAYKEL
 62
     7
 10
1.220840096665277
 20
63.49935070235209
 30
0.0
  0
VERTEX
  5
568
  8
FISHER___PAYKEL
 62
     7
 10
1.090314727762873
 20
63.53690165102491
 30
0.0
  0
VERTEX
  5
569
  8
FISHER___PAYKEL
 62
     7
 10
0.9579735782208212
 20
63.57029006307664
 30
0.0
  0
VERTEX
  5
56A
  8
FISHER___PAYKEL
 62
     7
 10
0.8238356229791031
 20
63.59944779021218
 30
0.0
  0
VERTEX
  5
56B
  8
FISHER___PAYKEL
 62
     7
 10
0.6879198369777009
 20
63.62430668413646
 30
0.0
  0
VERTEX
  5
56C
  8
FISHER___PAYKEL
 62
     7
 10
0.550245195156597
 20
63.64479859655441
 30
0.0
  0
VERTEX
  5
56D
  8
FISHER___PAYKEL
 62
     7
 10
0.4108306724557732
 20
63.66085537917091
 30
0.0
  0
VERTEX
  5
56E
  8
FISHER___PAYKEL
 62
     7
 10
0.2696952438152118
 20
63.67240888369091
 30
0.0
  0
VERTEX
  5
56F
  8
FISHER___PAYKEL
 62
     7
 10
0.1268578841748948
 20
63.6793909618193
 30
0.0
  0
VERTEX
  5
570
  8
FISHER___PAYKEL
 62
     7
 10
-0.0176624315251956
 20
63.681733465261
 30
0.0
  0
VERTEX
  5
571
  8
FISHER___PAYKEL
 62
     7
 10
-0.1619892701244858
 20
63.67941910125157
 30
0.0
  0
VERTEX
  5
572
  8
FISHER___PAYKEL
 62
     7
 10
-0.3045781657102692
 20
63.67252031099804
 30
0.0
  0
VERTEX
  5
573
  8
FISHER___PAYKEL
 62
     7
 10
-0.4454120004643491
 20
63.66110354716255
 30
0.0
  0
VERTEX
  5
574
  8
FISHER___PAYKEL
 62
     7
 10
-0.5844736565685291
 20
63.64523526240727
 30
0.0
  0
VERTEX
  5
575
  8
FISHER___PAYKEL
 62
     7
 10
-0.7217460162046123
 20
63.62498190939434
 30
0.0
  0
VERTEX
  5
576
  8
FISHER___PAYKEL
 62
     7
 10
-0.857211961554402
 20
63.60040994078589
 30
0.0
  0
VERTEX
  5
577
  8
FISHER___PAYKEL
 62
     7
 10
-0.9908543747997018
 20
63.57158580924411
 30
0.0
  0
VERTEX
  5
578
  8
FISHER___PAYKEL
 62
     7
 10
-1.122656138122315
 20
63.53857596743114
 30
0.0
  0
VERTEX
  5
579
  8
FISHER___PAYKEL
 62
     7
 10
-1.252600133704044
 20
63.50144686800911
 30
0.0
  0
VERTEX
  5
57A
  8
FISHER___PAYKEL
 62
     7
 10
-1.380669243726693
 20
63.46026496364017
 30
0.0
  0
VERTEX
  5
57B
  8
FISHER___PAYKEL
 62
     7
 10
-1.506846350372065
 20
63.41509670698648
 30
0.0
  0
VERTEX
  5
57C
  8
FISHER___PAYKEL
 62
     7
 10
-1.631114335821964
 20
63.36600855071021
 30
0.0
  0
VERTEX
  5
57D
  8
FISHER___PAYKEL
 62
     7
 10
-1.753456082258193
 20
63.31306694747347
 30
0.0
  0
VERTEX
  5
57E
  8
FISHER___PAYKEL
 62
     7
 10
-1.873854471862555
 20
63.25633834993844
 30
0.0
  0
VERTEX
  5
57F
  8
FISHER___PAYKEL
 62
     7
 10
-1.992292386816853
 20
63.19588921076726
 30
0.0
  0
VERTEX
  5
580
  8
FISHER___PAYKEL
 62
     7
 10
-2.108752709302891
 20
63.13178598262208
 30
0.0
  0
VERTEX
  5
581
  8
FISHER___PAYKEL
 62
     7
 10
-2.223218321502472
 20
63.06409511816505
 30
0.0
  0
VERTEX
  5
582
  8
FISHER___PAYKEL
 62
     7
 10
-2.3356721055974
 20
62.99288307005832
 30
0.0
  0
VERTEX
  5
583
  8
FISHER___PAYKEL
 62
     7
 10
-2.446096943769477
 20
62.91821629096404
 30
0.0
  0
VERTEX
  5
584
  8
FISHER___PAYKEL
 62
     7
 10
-2.554475718200507
 20
62.84016123354436
 30
0.0
  0
VERTEX
  5
585
  8
FISHER___PAYKEL
 62
     7
 10
-2.660791311072293
 20
62.75878435046143
 30
0.0
  0
VERTEX
  5
586
  8
FISHER___PAYKEL
 62
     7
 10
-2.76502660456664
 20
62.6741520943774
 30
0.0
  0
VERTEX
  5
587
  8
FISHER___PAYKEL
 62
     7
 10
-2.867164480865349
 20
62.58633091795443
 30
0.0
  0
VERTEX
  5
588
  8
FISHER___PAYKEL
 62
     7
 10
-2.967187822150224
 20
62.49538727385466
 30
0.0
  0
VERTEX
  5
589
  8
FISHER___PAYKEL
 62
     7
 10
-3.065079510603069
 20
62.40138761474024
 30
0.0
  0
VERTEX
  5
58A
  8
FISHER___PAYKEL
 62
     7
 10
-3.160822428405687
 20
62.30439839327332
 30
0.0
  0
VERTEX
  5
58B
  8
FISHER___PAYKEL
 62
     7
 10
-3.254399457739882
 20
62.20448606211605
 30
0.0
  0
VERTEX
  5
58C
  8
FISHER___PAYKEL
 62
     7
 10
-3.345793480787456
 20
62.10171707393058
 30
0.0
  0
VERTEX
  5
58D
  8
FISHER___PAYKEL
 62
     7
 10
-3.434987379730213
 20
61.99615788137906
 30
0.0
  0
VERTEX
  5
58E
  8
FISHER___PAYKEL
 62
     7
 10
-3.521964036749956
 20
61.88787493712365
 30
0.0
  0
VERTEX
  5
58F
  8
FISHER___PAYKEL
 62
     7
 10
-3.606706334028488
 20
61.77693469382648
 30
0.0
  0
VERTEX
  5
590
  8
FISHER___PAYKEL
 62
     7
 10
-3.689197153747614
 20
61.66340360414972
 30
0.0
  0
VERTEX
  5
591
  8
FISHER___PAYKEL
 62
     7
 10
-3.769419378089136
 20
61.54734812075552
 30
0.0
  0
VERTEX
  5
592
  8
FISHER___PAYKEL
 62
     7
 10
-3.847355889234857
 20
61.428834696306
 30
0.0
  0
VERTEX
  5
593
  8
FISHER___PAYKEL
 62
     7
 10
-3.922989569366581
 20
61.30792978346334
 30
0.0
  0
VERTEX
  5
594
  8
FISHER___PAYKEL
 62
     7
 10
-3.996303300666111
 20
61.18469983488968
 30
0.0
  0
VERTEX
  5
595
  8
FISHER___PAYKEL
 62
     7
 10
-4.06727996531525
 20
61.05921130324718
 30
0.0
  0
VERTEX
  5
596
  8
FISHER___PAYKEL
 62
     7
 10
-4.135902445495803
 20
60.93153064119798
 30
0.0
  0
VERTEX
  5
597
  8
FISHER___PAYKEL
 62
     7
 10
-4.20215362338957
 20
60.80172430140423
 30
0.0
  0
VERTEX
  5
598
  8
FISHER___PAYKEL
 62
     7
 10
-4.266016381178359
 20
60.66985873652808
 30
0.0
  0
VERTEX
  5
599
  8
FISHER___PAYKEL
 62
     7
 10
-4.32747360104397
 20
60.53600039923169
 30
0.0
  0
VERTEX
  5
59A
  8
FISHER___PAYKEL
 62
     7
 10
-4.386508165168205
 20
60.4002157421772
 30
0.0
  0
VERTEX
  5
59B
  8
FISHER___PAYKEL
 62
     7
 10
-4.443102955732872
 20
60.26257121802675
 30
0.0
  0
VERTEX
  5
59C
  8
FISHER___PAYKEL
 62
     7
 10
-4.49724085491977
 20
60.12313327944251
 30
0.0
  0
VERTEX
  5
59D
  8
FISHER___PAYKEL
 62
     7
 10
-4.548904744910705
 20
59.98196837908662
 30
0.0
  0
VERTEX
  5
59E
  8
FISHER___PAYKEL
 62
     7
 10
-4.598077507887479
 20
59.83914296962124
 30
0.0
  0
VERTEX
  5
59F
  8
FISHER___PAYKEL
 62
     7
 10
-4.644742026031896
 20
59.6947235037085
 30
0.0
  0
VERTEX
  5
5A0
  8
FISHER___PAYKEL
 62
     7
 10
-4.688881181525758
 20
59.54877643401058
 30
0.0
  0
VERTEX
  5
5A1
  8
FISHER___PAYKEL
 62
     7
 10
-4.73047785655087
 20
59.4013682131896
 30
0.0
  0
VERTEX
  5
5A2
  8
FISHER___PAYKEL
 62
     7
 10
-4.769514933289035
 20
59.25256529390772
 30
0.0
  0
VERTEX
  5
5A3
  8
FISHER___PAYKEL
 62
     7
 10
-4.805975293922055
 20
59.1024341288271
 30
0.0
  0
VERTEX
  5
5A4
  8
FISHER___PAYKEL
 62
     7
 10
-4.839841820631735
 20
58.95104117060988
 30
0.0
  0
VERTEX
  5
5A5
  8
FISHER___PAYKEL
 62
     7
 10
-4.871097395599877
 20
58.79845287191822
 30
0.0
  0
VERTEX
  5
5A6
  8
FISHER___PAYKEL
 62
     7
 10
-4.899724901008284
 20
58.64473568541425
 30
0.0
  0
VERTEX
  5
5A7
  8
FISHER___PAYKEL
 62
     7
 10
-4.925707219038761
 20
58.48995606376014
 30
0.0
  0
VERTEX
  5
5A8
  8
FISHER___PAYKEL
 62
     7
 10
-4.949027231873112
 20
58.33418045961803
 30
0.0
  0
VERTEX
  5
5A9
  8
FISHER___PAYKEL
 62
     7
 10
-4.969667821693138
 20
58.17747532565008
 30
0.0
  0
VERTEX
  5
5AA
  8
FISHER___PAYKEL
 62
     7
 10
-4.987611870680642
 20
58.01990711451843
 30
0.0
  0
VERTEX
  5
5AB
  8
FISHER___PAYKEL
 62
     7
 10
-5.002842261017429
 20
57.86154227888524
 30
0.0
  0
VERTEX
  5
5AC
  8
FISHER___PAYKEL
 62
     7
 10
-5.015341874885302
 20
57.70244727141264
 30
0.0
  0
VERTEX
  5
5AD
  8
FISHER___PAYKEL
 62
     7
 10
-5.032080301941519
 20
57.38233255159786
 30
0.0
  0
VERTEX
  5
5AE
  8
FISHER___PAYKEL
 62
     7
 10
-5.037690209303719
 20
57.06009457637128
 30
0.0
  0
VERTEX
  5
5AF
  8
FISHER___PAYKEL
 62
     7
 10
-5.037690209303719
 20
57.01776124303842
 30
0.0
  0
VERTEX
  5
5B0
  8
FISHER___PAYKEL
 62
     7
 10
-5.036254183154393
 20
56.85734081582204
 30
0.0
  0
VERTEX
  5
5B1
  8
FISHER___PAYKEL
 62
     7
 10
-5.031958754666402
 20
56.69726411762483
 30
0.0
  0
VERTEX
  5
5B2
  8
FISHER___PAYKEL
 62
     7
 10
-5.024822898779727
 20
56.53760099237478
 30
0.0
  0
VERTEX
  5
5B3
  8
FISHER___PAYKEL
 62
     7
 10
-5.014865590434352
 20
56.37842128399996
 30
0.0
  0
VERTEX
  5
5B4
  8
FISHER___PAYKEL
 62
     7
 10
-5.00210580457026
 20
56.21979483642835
 30
0.0
  0
VERTEX
  5
5B5
  8
FISHER___PAYKEL
 62
     7
 10
-4.986562516127432
 20
56.06179149358798
 30
0.0
  0
VERTEX
  5
5B6
  8
FISHER___PAYKEL
 62
     7
 10
-4.968254700045849
 20
55.90448109940685
 30
0.0
  0
VERTEX
  5
5B7
  8
FISHER___PAYKEL
 62
     7
 10
-4.947201331265493
 20
55.74793349781302
 30
0.0
  0
VERTEX
  5
5B8
  8
FISHER___PAYKEL
 62
     7
 10
-4.923421384726348
 20
55.59221853273448
 30
0.0
  0
VERTEX
  5
5B9
  8
FISHER___PAYKEL
 62
     7
 10
-4.896933835368396
 20
55.43740604809926
 30
0.0
  0
VERTEX
  5
5BA
  8
FISHER___PAYKEL
 62
     7
 10
-4.867757658131618
 20
55.28356588783538
 30
0.0
  0
VERTEX
  5
5BB
  8
FISHER___PAYKEL
 62
     7
 10
-4.835911827955997
 20
55.13076789587085
 30
0.0
  0
VERTEX
  5
5BC
  8
FISHER___PAYKEL
 62
     7
 10
-4.801415319781514
 20
54.97908191613369
 30
0.0
  0
VERTEX
  5
5BD
  8
FISHER___PAYKEL
 62
     7
 10
-4.764287108548151
 20
54.82857779255193
 30
0.0
  0
VERTEX
  5
5BE
  8
FISHER___PAYKEL
 62
     7
 10
-4.724546169195893
 20
54.67932536905359
 30
0.0
  0
VERTEX
  5
5BF
  8
FISHER___PAYKEL
 62
     7
 10
-4.682211476664719
 20
54.53139448956668
 30
0.0
  0
VERTEX
  5
5C0
  8
FISHER___PAYKEL
 62
     7
 10
-4.637302005894613
 20
54.38485499801922
 30
0.0
  0
VERTEX
  5
5C1
  8
FISHER___PAYKEL
 62
     7
 10
-4.589836731825556
 20
54.23977673833923
 30
0.0
  0
VERTEX
  5
5C2
  8
FISHER___PAYKEL
 62
     7
 10
-4.53983462939753
 20
54.09622955445474
 30
0.0
  0
VERTEX
  5
5C3
  8
FISHER___PAYKEL
 62
     7
 10
-4.487314673550518
 20
53.95428329029374
 30
0.0
  0
VERTEX
  5
5C4
  8
FISHER___PAYKEL
 62
     7
 10
-4.432295839224503
 20
53.81400778978427
 30
0.0
  0
VERTEX
  5
5C5
  8
FISHER___PAYKEL
 62
     7
 10
-4.374797101359464
 20
53.67547289685436
 30
0.0
  0
VERTEX
  5
5C6
  8
FISHER___PAYKEL
 62
     7
 10
-4.314837434895386
 20
53.53874845543201
 30
0.0
  0
VERTEX
  5
5C7
  8
FISHER___PAYKEL
 62
     7
 10
-4.252435814772252
 20
53.40390430944525
 30
0.0
  0
VERTEX
  5
5C8
  8
FISHER___PAYKEL
 62
     7
 10
-4.18761121593004
 20
53.27101030282209
 30
0.0
  0
VERTEX
  5
5C9
  8
FISHER___PAYKEL
 62
     7
 10
-4.120382613308736
 20
53.14013627949057
 30
0.0
  0
VERTEX
  5
5CA
  8
FISHER___PAYKEL
 62
     7
 10
-4.05076898184832
 20
53.01135208337868
 30
0.0
  0
VERTEX
  5
5CB
  8
FISHER___PAYKEL
 62
     7
 10
-3.978789296488775
 20
52.88472755841447
 30
0.0
  0
VERTEX
  5
5CC
  8
FISHER___PAYKEL
 62
     7
 10
-3.904462532170083
 20
52.76033254852592
 30
0.0
  0
VERTEX
  5
5CD
  8
FISHER___PAYKEL
 62
     7
 10
-3.827807663832226
 20
52.63823689764109
 30
0.0
  0
VERTEX
  5
5CE
  8
FISHER___PAYKEL
 62
     7
 10
-3.748843666415187
 20
52.51851044968798
 30
0.0
  0
VERTEX
  5
5CF
  8
FISHER___PAYKEL
 62
     7
 10
-3.667589514858946
 20
52.4012230485946
 30
0.0
  0
VERTEX
  5
5D0
  8
FISHER___PAYKEL
 62
     7
 10
-3.584064184103487
 20
52.28644453828899
 30
0.0
  0
VERTEX
  5
5D1
  8
FISHER___PAYKEL
 62
     7
 10
-3.498286649088792
 20
52.17424476269915
 30
0.0
  0
VERTEX
  5
5D2
  8
FISHER___PAYKEL
 62
     7
 10
-3.410275884754843
 20
52.06469356575312
 30
0.0
  0
VERTEX
  5
5D3
  8
FISHER___PAYKEL
 62
     7
 10
-3.320050866041621
 20
51.95786079137889
 30
0.0
  0
VERTEX
  5
5D4
  8
FISHER___PAYKEL
 62
     7
 10
-3.22763056788911
 20
51.85381628350451
 30
0.0
  0
VERTEX
  5
5D5
  8
FISHER___PAYKEL
 62
     7
 10
-3.133033965237291
 20
51.75262988605799
 30
0.0
  0
VERTEX
  5
5D6
  8
FISHER___PAYKEL
 62
     7
 10
-3.036280033026146
 20
51.65437144296734
 30
0.0
  0
VERTEX
  5
5D7
  8
FISHER___PAYKEL
 62
     7
 10
-2.937387746195657
 20
51.55911079816057
 30
0.0
  0
VERTEX
  5
5D8
  8
FISHER___PAYKEL
 62
     7
 10
-2.836376079685808
 20
51.46691779556573
 30
0.0
  0
VERTEX
  5
5D9
  8
FISHER___PAYKEL
 62
     7
 10
-2.733264008436579
 20
51.37786227911081
 30
0.0
  0
VERTEX
  5
5DA
  8
FISHER___PAYKEL
 62
     7
 10
-2.628070507387953
 20
51.29201409272386
 30
0.0
  0
VERTEX
  5
5DB
  8
FISHER___PAYKEL
 62
     7
 10
-2.520814551479912
 20
51.20944308033287
 30
0.0
  0
VERTEX
  5
5DC
  8
FISHER___PAYKEL
 62
     7
 10
-2.411515115652438
 20
51.13021908586587
 30
0.0
  0
VERTEX
  5
5DD
  8
FISHER___PAYKEL
 62
     7
 10
-2.300191174845513
 20
51.05441195325088
 30
0.0
  0
VERTEX
  5
5DE
  8
FISHER___PAYKEL
 62
     7
 10
-2.18686170399912
 20
50.98209152641592
 30
0.0
  0
VERTEX
  5
5DF
  8
FISHER___PAYKEL
 62
     7
 10
-2.071545678053241
 20
50.91332764928902
 30
0.0
  0
VERTEX
  5
5E0
  8
FISHER___PAYKEL
 62
     7
 10
-1.954262071947857
 20
50.84819016579817
 30
0.0
  0
VERTEX
  5
5E1
  8
FISHER___PAYKEL
 62
     7
 10
-1.835029860622951
 20
50.78674891987141
 30
0.0
  0
VERTEX
  5
5E2
  8
FISHER___PAYKEL
 62
     7
 10
-1.713868019018505
 20
50.72907375543677
 30
0.0
  0
VERTEX
  5
5E3
  8
FISHER___PAYKEL
 62
     7
 10
-1.590795522074501
 20
50.67523451642225
 30
0.0
  0
VERTEX
  5
5E4
  8
FISHER___PAYKEL
 62
     7
 10
-1.465831344730922
 20
50.62530104675587
 30
0.0
  0
VERTEX
  5
5E5
  8
FISHER___PAYKEL
 62
     7
 10
-1.338994461927749
 20
50.57934319036566
 30
0.0
  0
VERTEX
  5
5E6
  8
FISHER___PAYKEL
 62
     7
 10
-1.210303848604965
 20
50.53743079117962
 30
0.0
  0
VERTEX
  5
5E7
  8
FISHER___PAYKEL
 62
     7
 10
-1.079778479702551
 20
50.49963369312579
 30
0.0
  0
VERTEX
  5
5E8
  8
FISHER___PAYKEL
 62
     7
 10
-0.9474373301604898
 20
50.46602174013218
 30
0.0
  0
VERTEX
  5
5E9
  8
FISHER___PAYKEL
 62
     7
 10
-0.8132993749187638
 20
50.43666477612682
 30
0.0
  0
VERTEX
  5
5EA
  8
FISHER___PAYKEL
 62
     7
 10
-0.677383588917355
 20
50.41163264503771
 30
0.0
  0
VERTEX
  5
5EB
  8
FISHER___PAYKEL
 62
     7
 10
-0.5397089470962455
 20
50.39099519079288
 30
0.0
  0
VERTEX
  5
5EC
  8
FISHER___PAYKEL
 62
     7
 10
-0.4002944243954173
 20
50.37482225732035
 30
0.0
  0
VERTEX
  5
5ED
  8
FISHER___PAYKEL
 62
     7
 10
-0.2591589957548527
 20
50.36318368854813
 30
0.0
  0
VERTEX
  5
5EE
  8
FISHER___PAYKEL
 62
     7
 10
-0.1163216361145338
 20
50.35614932840427
 30
0.0
  0
VERTEX
  5
5EF
  8
FISHER___PAYKEL
 62
     7
 10
0.0281986795855573
 20
50.35378902081675
 30
0.0
  0
VERTEX
  5
5F0
  8
FISHER___PAYKEL
 62
     7
 10
0.1725255181848881
 20
50.35611864552259
 30
0.0
  0
VERTEX
  5
5F1
  8
FISHER___PAYKEL
 62
     7
 10
0.3151144137707083
 20
50.36306224893225
 30
0.0
  0
VERTEX
  5
5F2
  8
FISHER___PAYKEL
 62
     7
 10
0.4559482485248212
 20
50.37455192498393
 30
0.0
  0
VERTEX
  5
5F3
  8
FISHER___PAYKEL
 62
     7
 10
0.5950099046290305
 20
50.39051976761579
 30
0.0
  0
VERTEX
  5
5F4
  8
FISHER___PAYKEL
 62
     7
 10
0.7322822642651394
 20
50.41089787076605
 30
0.0
  0
VERTEX
  5
5F5
  8
FISHER___PAYKEL
 62
     7
 10
0.8677482096149514
 20
50.4356183283729
 30
0.0
  0
VERTEX
  5
5F6
  8
FISHER___PAYKEL
 62
     7
 10
1.00139062286027
 20
50.46461323437453
 30
0.0
  0
VERTEX
  5
5F7
  8
FISHER___PAYKEL
 62
     7
 10
1.133192386182898
 20
50.49781468270911
 30
0.0
  0
VERTEX
  5
5F8
  8
FISHER___PAYKEL
 62
     7
 10
1.26313638176464
 20
50.53515476731485
 30
0.0
  0
VERTEX
  5
5F9
  8
FISHER___PAYKEL
 62
     7
 10
1.391205491787299
 20
50.57656558212994
 30
0.0
  0
VERTEX
  5
5FA
  8
FISHER___PAYKEL
 62
     7
 10
1.517382598432677
 20
50.62197922109259
 30
0.0
  0
VERTEX
  5
5FB
  8
FISHER___PAYKEL
 62
     7
 10
1.64165058388258
 20
50.67132777814096
 30
0.0
  0
VERTEX
  5
5FC
  8
FISHER___PAYKEL
 62
     7
 10
1.763992330318809
 20
50.72454334721326
 30
0.0
  0
VERTEX
  5
5FD
  8
FISHER___PAYKEL
 62
     7
 10
1.884390719923169
 20
50.78155802224767
 30
0.0
  0
VERTEX
  5
5FE
  8
FISHER___PAYKEL
 62
     7
 10
2.002828634877463
 20
50.84230389718239
 30
0.0
  0
VERTEX
  5
5FF
  8
FISHER___PAYKEL
 62
     7
 10
2.119288957363494
 20
50.90671306595561
 30
0.0
  0
VERTEX
  5
600
  8
FISHER___PAYKEL
 62
     7
 10
2.233754569563066
 20
50.97471762250553
 30
0.0
  0
VERTEX
  5
601
  8
FISHER___PAYKEL
 62
     7
 10
2.346208353657982
 20
51.04624966077033
 30
0.0
  0
VERTEX
  5
602
  8
FISHER___PAYKEL
 62
     7
 10
2.456633191830046
 20
51.12124127468821
 30
0.0
  0
VERTEX
  5
603
  8
FISHER___PAYKEL
 62
     7
 10
2.565011966261061
 20
51.19962455819735
 30
0.0
  0
VERTEX
  5
604
  8
FISHER___PAYKEL
 62
     7
 10
2.67132755913283
 20
51.28133160523595
 30
0.0
  0
VERTEX
  5
605
  8
FISHER___PAYKEL
 62
     7
 10
2.775562852627157
 20
51.3662945097422
 30
0.0
  0
VERTEX
  5
606
  8
FISHER___PAYKEL
 62
     7
 10
2.877700728925845
 20
51.45444536565431
 30
0.0
  0
VERTEX
  5
607
  8
FISHER___PAYKEL
 62
     7
 10
2.977724070210698
 20
51.54571626691043
 30
0.0
  0
VERTEX
  5
608
  8
FISHER___PAYKEL
 62
     7
 10
3.075615758663519
 20
51.64003930744879
 30
0.0
  0
VERTEX
  5
609
  8
FISHER___PAYKEL
 62
     7
 10
3.171358676466112
 20
51.73734658120756
 30
0.0
  0
VERTEX
  5
60A
  8
FISHER___PAYKEL
 62
     7
 10
3.264935705800279
 20
51.83757018212495
 30
0.0
  0
VERTEX
  5
60B
  8
FISHER___PAYKEL
 62
     7
 10
3.356329728847825
 20
51.94064220413913
 30
0.0
  0
VERTEX
  5
60C
  8
FISHER___PAYKEL
 62
     7
 10
3.445523627790553
 20
52.04649474118831
 30
0.0
  0
VERTEX
  5
60D
  8
FISHER___PAYKEL
 62
     7
 10
3.532500284810266
 20
52.15505988721067
 30
0.0
  0
VERTEX
  5
60E
  8
FISHER___PAYKEL
 62
     7
 10
3.617242582088768
 20
52.26626973614441
 30
0.0
  0
VERTEX
  5
60F
  8
FISHER___PAYKEL
 62
     7
 10
3.699733401807862
 20
52.38005638192772
 30
0.0
  0
VERTEX
  5
610
  8
FISHER___PAYKEL
 62
     7
 10
3.779955626149351
 20
52.49635191849878
 30
0.0
  0
VERTEX
  5
611
  8
FISHER___PAYKEL
 62
     7
 10
3.857892137295039
 20
52.6150884397958
 30
0.0
  0
VERTEX
  5
612
  8
FISHER___PAYKEL
 62
     7
 10
3.93352581742673
 20
52.73619803975696
 30
0.0
  0
VERTEX
  5
613
  8
FISHER___PAYKEL
 62
     7
 10
4.006839548726226
 20
52.85961281232046
 30
0.0
  0
VERTEX
  5
614
  8
FISHER___PAYKEL
 62
     7
 10
4.077816213375332
 20
52.98526485142447
 30
0.0
  0
VERTEX
  5
615
  8
FISHER___PAYKEL
 62
     7
 10
4.146438693555851
 20
53.11308625100722
 30
0.0
  0
VERTEX
  5
616
  8
FISHER___PAYKEL
 62
     7
 10
4.212689871449586
 20
53.24300910500688
 30
0.0
  0
VERTEX
  5
617
  8
FISHER___PAYKEL
 62
     7
 10
4.276552629238338
 20
53.37496550736162
 30
0.0
  0
VERTEX
  5
618
  8
FISHER___PAYKEL
 62
     7
 10
4.338009849103916
 20
53.50888755200967
 30
0.0
  0
VERTEX
  5
619
  8
FISHER___PAYKEL
 62
     7
 10
4.397044413228118
 20
53.6447073328892
 30
0.0
  0
VERTEX
  5
61A
  8
FISHER___PAYKEL
 62
     7
 10
4.453639203792751
 20
53.78235694393841
 30
0.0
  0
VERTEX
  5
61B
  8
FISHER___PAYKEL
 62
     7
 10
4.507777102979617
 20
53.92176847909548
 30
0.0
  0
VERTEX
  5
61C
  8
FISHER___PAYKEL
 62
     7
 10
4.55944099297052
 20
54.06287403229862
 30
0.0
  0
VERTEX
  5
61D
  8
FISHER___PAYKEL
 62
     7
 10
4.608613755947262
 20
54.20560569748601
 30
0.0
  0
VERTEX
  5
61E
  8
FISHER___PAYKEL
 62
     7
 10
4.655278274091648
 20
54.34989556859584
 30
0.0
  0
VERTEX
  5
61F
  8
FISHER___PAYKEL
 62
     7
 10
4.69941742958548
 20
54.49567573956631
 30
0.0
  0
VERTEX
  5
620
  8
FISHER___PAYKEL
 62
     7
 10
4.741014104610564
 20
54.6428783043356
 30
0.0
  0
VERTEX
  5
621
  8
FISHER___PAYKEL
 62
     7
 10
4.7800511813487
 20
54.79143535684192
 30
0.0
  0
VERTEX
  5
622
  8
FISHER___PAYKEL
 62
     7
 10
4.816511541981694
 20
54.94127899102345
 30
0.0
  0
VERTEX
  5
623
  8
FISHER___PAYKEL
 62
     7
 10
4.850378068691349
 20
55.09234130081837
 30
0.0
  0
VERTEX
  5
624
  8
FISHER___PAYKEL
 62
     7
 10
4.881633643659468
 20
55.24455438016489
 30
0.0
  0
VERTEX
  5
625
  8
FISHER___PAYKEL
 62
     7
 10
4.910261149067853
 20
55.39785032300119
 30
0.0
  0
VERTEX
  5
626
  8
FISHER___PAYKEL
 62
     7
 10
4.93624346709831
 20
55.55216122326549
 30
0.0
  0
VERTEX
  5
627
  8
FISHER___PAYKEL
 62
     7
 10
4.95956347993264
 20
55.70741917489593
 30
0.0
  0
VERTEX
  5
628
  8
FISHER___PAYKEL
 62
     7
 10
4.980204069752649
 20
55.86355627183075
 30
0.0
  0
VERTEX
  5
629
  8
FISHER___PAYKEL
 62
     7
 10
4.998148118740138
 20
56.02050460800811
 30
0.0
  0
VERTEX
  5
62A
  8
FISHER___PAYKEL
 62
     7
 10
5.013378509076913
 20
56.17819627736623
 30
0.0
  0
VERTEX
  5
62B
  8
FISHER___PAYKEL
 62
     7
 10
5.025878122944775
 20
56.33656337384327
 30
0.0
  0
VERTEX
  5
62C
  8
FISHER___PAYKEL
 62
     7
 10
5.035629842525529
 20
56.49553799137745
 30
0.0
  0
VERTEX
  5
62D
  8
FISHER___PAYKEL
 62
     7
 10
5.042616550000977
 20
56.65505222390694
 30
0.0
  0
VERTEX
  5
62E
  8
FISHER___PAYKEL
 62
     7
 10
5.046821127552922
 20
56.81503816536994
 30
0.0
  0
SEQEND
  5
62F
  8
FISHER___PAYKEL
 62
     7
  0
POLYLINE
  5
630
  8
FISHER___PAYKEL
 62
     7
 66
     1
 10
0.0
 20
0.0
 30
0.0
 70
     1
  0
VERTEX
  5
631
  8
FISHER___PAYKEL
 62
     7
 10
-6.194801320414399
 20
56.97542790970465
 30
0.0
  0
VERTEX
  5
632
  8
FISHER___PAYKEL
 62
     7
 10
-6.194801320414399
 20
57.01776124303842
 30
0.0
  0
VERTEX
  5
633
  8
FISHER___PAYKEL
 62
     7
 10
-6.193035318713044
 20
57.20870685806511
 30
0.0
  0
VERTEX
  5
634
  8
FISHER___PAYKEL
 62
     7
 10
-6.187752978027518
 20
57.39884317171545
 30
0.0
  0
VERTEX
  5
635
  8
FISHER___PAYKEL
 62
     7
 10
-6.178977794985629
 20
57.58809985559488
 30
0.0
  0
VERTEX
  5
636
  8
FISHER___PAYKEL
 62
     7
 10
-6.166733266215184
 20
57.77640658130883
 30
0.0
  0
VERTEX
  5
637
  8
FISHER___PAYKEL
 62
     7
 10
-6.15104288834399
 20
57.96369302046271
 30
0.0
  0
VERTEX
  5
638
  8
FISHER___PAYKEL
 62
     7
 10
-6.131930157999856
 20
58.14988884466197
 30
0.0
  0
VERTEX
  5
639
  8
FISHER___PAYKEL
 62
     7
 10
-6.109418571810589
 20
58.33492372551203
 30
0.0
  0
VERTEX
  5
63A
  8
FISHER___PAYKEL
 62
     7
 10
-6.083531626403996
 20
58.51872733461832
 30
0.0
  0
VERTEX
  5
63B
  8
FISHER___PAYKEL
 62
     7
 10
-6.054292818407886
 20
58.70122934358626
 30
0.0
  0
VERTEX
  5
63C
  8
FISHER___PAYKEL
 62
     7
 10
-6.021725644450065
 20
58.88235942402128
 30
0.0
  0
VERTEX
  5
63D
  8
FISHER___PAYKEL
 62
     7
 10
-5.985853601158341
 20
59.06204724752882
 30
0.0
  0
VERTEX
  5
63E
  8
FISHER___PAYKEL
 62
     7
 10
-5.946700185160521
 20
59.24022248571429
 30
0.0
  0
VERTEX
  5
63F
  8
FISHER___PAYKEL
 62
     7
 10
-5.904288893084415
 20
59.41681481018313
 30
0.0
  0
VERTEX
  5
640
  8
FISHER___PAYKEL
 62
     7
 10
-5.858643221557829
 20
59.59175389254077
 30
0.0
  0
VERTEX
  5
641
  8
FISHER___PAYKEL
 62
     7
 10
-5.80978666720857
 20
59.76496940439263
 30
0.0
  0
VERTEX
  5
642
  8
FISHER___PAYKEL
 62
     7
 10
-5.757742726664446
 20
59.93639101734414
 30
0.0
  0
VERTEX
  5
643
  8
FISHER___PAYKEL
 62
     7
 10
-5.702534896553265
 20
60.10594840300072
 30
0.0
  0
VERTEX
  5
644
  8
FISHER___PAYKEL
 62
     7
 10
-5.644186673502835
 20
60.27357123296782
 30
0.0
  0
VERTEX
  5
645
  8
FISHER___PAYKEL
 62
     7
 10
-5.582721554140964
 20
60.43918917885085
 30
0.0
  0
VERTEX
  5
646
  8
FISHER___PAYKEL
 62
     7
 10
-5.518163035095457
 20
60.60273191225524
 30
0.0
  0
VERTEX
  5
647
  8
FISHER___PAYKEL
 62
     7
 10
-5.450534612994123
 20
60.76412910478643
 30
0.0
  0
VERTEX
  5
648
  8
FISHER___PAYKEL
 62
     7
 10
-5.37985978446477
 20
60.92331042804983
 30
0.0
  0
VERTEX
  5
649
  8
FISHER___PAYKEL
 62
     7
 10
-5.306162046135206
 20
61.08020555365088
 30
0.0
  0
VERTEX
  5
64A
  8
FISHER___PAYKEL
 62
     7
 10
-5.229464894633239
 20
61.23474415319501
 30
0.0
  0
VERTEX
  5
64B
  8
FISHER___PAYKEL
 62
     7
 10
-5.149791826586674
 20
61.38685589828764
 30
0.0
  0
VERTEX
  5
64C
  8
FISHER___PAYKEL
 62
     7
 10
-5.067166338623322
 20
61.5364704605342
 30
0.0
  0
VERTEX
  5
64D
  8
FISHER___PAYKEL
 62
     7
 10
-4.981611927370987
 20
61.68351751154012
 30
0.0
  0
VERTEX
  5
64E
  8
FISHER___PAYKEL
 62
     7
 10
-4.893152089457478
 20
61.82792672291082
 30
0.0
  0
VERTEX
  5
64F
  8
FISHER___PAYKEL
 62
     7
 10
-4.801810321510604
 20
61.96962776625175
 30
0.0
  0
VERTEX
  5
650
  8
FISHER___PAYKEL
 62
     7
 10
-4.707610120158172
 20
62.10855031316831
 30
0.0
  0
VERTEX
  5
651
  8
FISHER___PAYKEL
 62
     7
 10
-4.610574982027989
 20
62.24462403526594
 30
0.0
  0
VERTEX
  5
652
  8
FISHER___PAYKEL
 62
     7
 10
-4.510728403747862
 20
62.37777860415008
 30
0.0
  0
VERTEX
  5
653
  8
FISHER___PAYKEL
 62
     7
 10
-4.4080938819456
 20
62.50794369142614
 30
0.0
  0
VERTEX
  5
654
  8
FISHER___PAYKEL
 62
     7
 10
-4.30269491324901
 20
62.63504896869956
 30
0.0
  0
VERTEX
  5
655
  8
FISHER___PAYKEL
 62
     7
 10
-4.194554994285899
 20
62.75902410757575
 30
0.0
  0
VERTEX
  5
656
  8
FISHER___PAYKEL
 62
     7
 10
-4.083697621684076
 20
62.87979877966017
 30
0.0
  0
VERTEX
  5
657
  8
FISHER___PAYKEL
 62
     7
 10
-3.970146292071347
 20
62.99730265655822
 30
0.0
  0
VERTEX
  5
658
  8
FISHER___PAYKEL
 62
     7
 10
-3.853924502075521
 20
63.11146540987534
 30
0.0
  0
VERTEX
  5
659
  8
FISHER___PAYKEL
 62
     7
 10
-3.735055748324404
 20
63.22221671121694
 30
0.0
  0
VERTEX
  5
65A
  8
FISHER___PAYKEL
 62
     7
 10
-3.613563527445805
 20
63.32948623218849
 30
0.0
  0
VERTEX
  5
65B
  8
FISHER___PAYKEL
 62
     7
 10
-3.489471336067532
 20
63.43320364439538
 30
0.0
  0
VERTEX
  5
65C
  8
FISHER___PAYKEL
 62
     7
 10
-3.36280267081739
 20
63.53329861944304
 30
0.0
  0
VERTEX
  5
65D
  8
FISHER___PAYKEL
 62
     7
 10
-3.23358102832319
 20
63.62970082893691
 30
0.0
  0
VERTEX
  5
65E
  8
FISHER___PAYKEL
 62
     7
 10
-3.101829905212737
 20
63.72233994448242
 30
0.0
  0
VERTEX
  5
65F
  8
FISHER___PAYKEL
 62
     7
 10
-2.96757279811384
 20
63.81114563768499
 30
0.0
  0
VERTEX
  5
660
  8
FISHER___PAYKEL
 62
     7
 10
-2.830833203654306
 20
63.89604758015005
 30
0.0
  0
VERTEX
  5
661
  8
FISHER___PAYKEL
 62
     7
 10
-2.691634618461943
 20
63.97697544348304
 30
0.0
  0
VERTEX
  5
662
  8
FISHER___PAYKEL
 62
     7
 10
-2.550000539164557
 20
64.05385889928937
 30
0.0
  0
VERTEX
  5
663
  8
FISHER___PAYKEL
 62
     7
 10
-2.405954462389958
 20
64.12662761917446
 30
0.0
  0
VERTEX
  5
664
  8
FISHER___PAYKEL
 62
     7
 10
-2.259519884765952
 20
64.19521127474377
 30
0.0
  0
VERTEX
  5
665
  8
FISHER___PAYKEL
 62
     7
 10
-2.110720302920348
 20
64.25953953760272
 30
0.0
  0
VERTEX
  5
666
  8
FISHER___PAYKEL
 62
     7
 10
-1.959579213480952
 20
64.31954207935671
 30
0.0
  0
VERTEX
  5
667
  8
FISHER___PAYKEL
 62
     7
 10
-1.806120113075572
 20
64.37514857161119
 30
0.0
  0
VERTEX
  5
668
  8
FISHER___PAYKEL
 62
     7
 10
-1.650366498332016
 20
64.4262886859716
 30
0.0
  0
VERTEX
  5
669
  8
FISHER___PAYKEL
 62
     7
 10
-1.492341865878092
 20
64.47289209404335
 30
0.0
  0
VERTEX
  5
66A
  8
FISHER___PAYKEL
 62
     7
 10
-1.332069712341607
 20
64.51488846743186
 30
0.0
  0
VERTEX
  5
66B
  8
FISHER___PAYKEL
 62
     7
 10
-1.169573534350368
 20
64.55220747774257
 30
0.0
  0
VERTEX
  5
66C
  8
FISHER___PAYKEL
 62
     7
 10
-1.004876828532184
 20
64.5847787965809
 30
0.0
  0
VERTEX
  5
66D
  8
FISHER___PAYKEL
 62
     7
 10
-0.8380030915148613
 20
64.6125320955523
 30
0.0
  0
VERTEX
  5
66E
  8
FISHER___PAYKEL
 62
     7
 10
-0.6689758199262084
 20
64.63539704626218
 30
0.0
  0
VERTEX
  5
66F
  8
FISHER___PAYKEL
 62
     7
 10
-0.4978185103940324
 20
64.65330332031598
 30
0.0
  0
VERTEX
  5
670
  8
FISHER___PAYKEL
 62
     7
 10
-0.324554659546141
 20
64.66618058931911
 30
0.0
  0
VERTEX
  5
671
  8
FISHER___PAYKEL
 62
     7
 10
-0.1492077640103419
 20
64.67395852487701
 30
0.0
  0
VERTEX
  5
672
  8
FISHER___PAYKEL
 62
     7
 10
0.0281986795855573
 20
64.6765667985951
 30
0.0
  0
VERTEX
  5
673
  8
FISHER___PAYKEL
 62
     7
 10
0.2054090891738494
 20
64.67398920775868
 30
0.0
  0
VERTEX
  5
674
  8
FISHER___PAYKEL
 62
     7
 10
0.3804999575939284
 20
64.666302028935
 30
0.0
  0
VERTEX
  5
675
  8
FISHER___PAYKEL
 62
     7
 10
0.553449806828623
 20
64.6535736526524
 30
0.0
  0
VERTEX
  5
676
  8
FISHER___PAYKEL
 62
     7
 10
0.7242371588607621
 20
64.63587246943928
 30
0.0
  0
VERTEX
  5
677
  8
FISHER___PAYKEL
 62
     7
 10
0.8928405356731746
 20
64.61326686982397
 30
0.0
  0
VERTEX
  5
678
  8
FISHER___PAYKEL
 62
     7
 10
1.059238459248689
 20
64.58582524433484
 30
0.0
  0
VERTEX
  5
679
  8
FISHER___PAYKEL
 62
     7
 10
1.223409451570134
 20
64.55361598350024
 30
0.0
  0
VERTEX
  5
67A
  8
FISHER___PAYKEL
 62
     7
 10
1.385332034620339
 20
64.51670747784854
 30
0.0
  0
VERTEX
  5
67B
  8
FISHER___PAYKEL
 62
     7
 10
1.544984730382132
 20
64.47516811790811
 30
0.0
  0
VERTEX
  5
67C
  8
FISHER___PAYKEL
 62
     7
 10
1.702346060838342
 20
64.42906629420729
 30
0.0
  0
VERTEX
  5
67D
  8
FISHER___PAYKEL
 62
     7
 10
1.857394547971798
 20
64.37847039727447
 30
0.0
  0
VERTEX
  5
67E
  8
FISHER___PAYKEL
 62
     7
 10
2.010108713765328
 20
64.323448817638
 30
0.0
  0
VERTEX
  5
67F
  8
FISHER___PAYKEL
 62
     7
 10
2.160467080201763
 20
64.26406994582624
 30
0.0
  0
VERTEX
  5
680
  8
FISHER___PAYKEL
 62
     7
 10
2.308448169263929
 20
64.20040217236752
 30
0.0
  0
VERTEX
  5
681
  8
FISHER___PAYKEL
 62
     7
 10
2.454030502934657
 20
64.13251388779022
 30
0.0
  0
VERTEX
  5
682
  8
FISHER___PAYKEL
 62
     7
 10
2.597192603196774
 20
64.06047348262275
 30
0.0
  0
VERTEX
  5
683
  8
FISHER___PAYKEL
 62
     7
 10
2.73791299203311
 20
63.98434934739341
 30
0.0
  0
VERTEX
  5
684
  8
FISHER___PAYKEL
 62
     7
 10
2.876170191426493
 20
63.90420987263059
 30
0.0
  0
VERTEX
  5
685
  8
FISHER___PAYKEL
 62
     7
 10
3.011942723359753
 20
63.82012344886263
 30
0.0
  0
VERTEX
  5
686
  8
FISHER___PAYKEL
 62
     7
 10
3.145209109815717
 20
63.7321584666179
 30
0.0
  0
VERTEX
  5
687
  8
FISHER___PAYKEL
 62
     7
 10
3.275947872777214
 20
63.64038331642477
 30
0.0
  0
VERTEX
  5
688
  8
FISHER___PAYKEL
 62
     7
 10
3.404137534227075
 20
63.54486638881161
 30
0.0
  0
VERTEX
  5
689
  8
FISHER___PAYKEL
 62
     7
 10
3.529756616148127
 20
63.44567607430675
 30
0.0
  0
VERTEX
  5
68A
  8
FISHER___PAYKEL
 62
     7
 10
3.652783640523198
 20
63.34288076343857
 30
0.0
  0
VERTEX
  5
68B
  8
FISHER___PAYKEL
 62
     7
 10
3.773197129335119
 20
63.23654884673543
 30
0.0
  0
VERTEX
  5
68C
  8
FISHER___PAYKEL
 62
     7
 10
3.890975604566717
 20
63.12674871472569
 30
0.0
  0
VERTEX
  5
68D
  8
FISHER___PAYKEL
 62
     7
 10
4.006097588200822
 20
63.01354875793771
 30
0.0
  0
VERTEX
  5
68E
  8
FISHER___PAYKEL
 62
     7
 10
4.118541602220261
 20
62.89701736689986
 30
0.0
  0
VERTEX
  5
68F
  8
FISHER___PAYKEL
 62
     7
 10
4.228286168607864
 20
62.77722293214048
 30
0.0
  0
VERTEX
  5
690
  8
FISHER___PAYKEL
 62
     7
 10
4.335309809346461
 20
62.65423384418794
 30
0.0
  0
VERTEX
  5
691
  8
FISHER___PAYKEL
 62
     7
 10
4.439591046418879
 20
62.52811849357062
 30
0.0
  0
VERTEX
  5
692
  8
FISHER___PAYKEL
 62
     7
 10
4.541108401807946
 20
62.39894527081685
 30
0.0
  0
VERTEX
  5
693
  8
FISHER___PAYKEL
 62
     7
 10
4.639840397496494
 20
62.26678256645501
 30
0.0
  0
VERTEX
  5
694
  8
FISHER___PAYKEL
 62
     7
 10
4.735765555467348
 20
62.13169877101347
 30
0.0
  0
VERTEX
  5
695
  8
FISHER___PAYKEL
 62
     7
 10
4.82886239770334
 20
61.99376227502057
 30
0.0
  0
VERTEX
  5
696
  8
FISHER___PAYKEL
 62
     7
 10
4.919109446187297
 20
61.85304146900468
 30
0.0
  0
VERTEX
  5
697
  8
FISHER___PAYKEL
 62
     7
 10
5.006485222902047
 20
61.70960474349415
 30
0.0
  0
VERTEX
  5
698
  8
FISHER___PAYKEL
 62
     7
 10
5.090968249830421
 20
61.56352048901736
 30
0.0
  0
VERTEX
  5
699
  8
FISHER___PAYKEL
 62
     7
 10
5.172537048955247
 20
61.41485709610267
 30
0.0
  0
VERTEX
  5
69A
  8
FISHER___PAYKEL
 62
     7
 10
5.251170142259353
 20
61.26368295527843
 30
0.0
  0
VERTEX
  5
69B
  8
FISHER___PAYKEL
 62
     7
 10
5.326846051725568
 20
61.110066457073
 30
0.0
  0
VERTEX
  5
69C
  8
FISHER___PAYKEL
 62
     7
 10
5.399543299336722
 20
60.95407599201474
 30
0.0
  0
VERTEX
  5
69D
  8
FISHER___PAYKEL
 62
     7
 10
5.469240407075642
 20
60.79577995063202
 30
0.0
  0
VERTEX
  5
69E
  8
FISHER___PAYKEL
 62
     7
 10
5.535915896925157
 20
60.63524672345321
 30
0.0
  0
VERTEX
  5
69F
  8
FISHER___PAYKEL
 62
     7
 10
5.599548290868098
 20
60.47254470100664
 30
0.0
  0
VERTEX
  5
6A0
  8
FISHER___PAYKEL
 62
     7
 10
5.660116110887291
 20
60.30774227382071
 30
0.0
  0
VERTEX
  5
6A1
  8
FISHER___PAYKEL
 62
     7
 10
5.717597878965567
 20
60.14090783242374
 30
0.0
  0
VERTEX
  5
6A2
  8
FISHER___PAYKEL
 62
     7
 10
5.771972117085753
 20
59.97210976734412
 30
0.0
  0
VERTEX
  5
6A3
  8
FISHER___PAYKEL
 62
     7
 10
5.823217347230678
 20
59.8014164691102
 30
0.0
  0
VERTEX
  5
6A4
  8
FISHER___PAYKEL
 62
     7
 10
5.871312091383172
 20
59.62889632825035
 30
0.0
  0
VERTEX
  5
6A5
  8
FISHER___PAYKEL
 62
     7
 10
5.916234871526063
 20
59.45461773529293
 30
0.0
  0
VERTEX
  5
6A6
  8
FISHER___PAYKEL
 62
     7
 10
5.95796420964218
 20
59.27864908076629
 30
0.0
  0
VERTEX
  5
6A7
  8
FISHER___PAYKEL
 62
     7
 10
5.99647862771435
 20
59.10105875519879
 30
0.0
  0
VERTEX
  5
6A8
  8
FISHER___PAYKEL
 62
     7
 10
6.031756647725405
 20
58.9219151491188
 30
0.0
  0
VERTEX
  5
6A9
  8
FISHER___PAYKEL
 62
     7
 10
6.063776791658172
 20
58.74128665305469
 30
0.0
  0
VERTEX
  5
6AA
  8
FISHER___PAYKEL
 62
     7
 10
6.09251758149548
 20
58.5592416575348
 30
0.0
  0
VERTEX
  5
6AB
  8
FISHER___PAYKEL
 62
     7
 10
6.117957539220158
 20
58.37584855308751
 30
0.0
  0
VERTEX
  5
6AC
  8
FISHER___PAYKEL
 62
     7
 10
6.140075186815034
 20
58.19117573024116
 30
0.0
  0
VERTEX
  5
6AD
  8
FISHER___PAYKEL
 62
     7
 10
6.158849046262937
 20
58.00529157952413
 30
0.0
  0
VERTEX
  5
6AE
  8
FISHER___PAYKEL
 62
     7
 10
6.174257639546696
 20
57.81826449146476
 30
0.0
  0
VERTEX
  5
6AF
  8
FISHER___PAYKEL
 62
     7
 10
6.186279488649141
 20
57.63016285659144
 30
0.0
  0
VERTEX
  5
6B0
  8
FISHER___PAYKEL
 62
     7
 10
6.194893115553098
 20
57.44105506543251
 30
0.0
  0
VERTEX
  5
6B1
  8
FISHER___PAYKEL
 62
     7
 10
6.200077042241399
 20
57.25100950851633
 30
0.0
  0
VERTEX
  5
6B2
  8
FISHER___PAYKEL
 62
     7
 10
6.201809790696871
 20
57.06009457637128
 30
0.0
  0
VERTEX
  5
6B3
  8
FISHER___PAYKEL
 62
     7
 10
6.201809790696871
 20
57.01776124303842
 30
0.0
  0
VERTEX
  5
6B4
  8
FISHER___PAYKEL
 62
     7
 10
6.200046345902321
 20
56.82665539069941
 30
0.0
  0
VERTEX
  5
6B5
  8
FISHER___PAYKEL
 62
     7
 10
6.194771568277979
 20
56.63636893278994
 30
0.0
  0
VERTEX
  5
6B6
  8
FISHER___PAYKEL
 62
     7
 10
6.186008792962798
 20
56.44697195547128
 30
0.0
  0
VERTEX
  5
6B7
  8
FISHER___PAYKEL
 62
     7
 10
6.173781355095737
 20
56.25853454490473
 30
0.0
  0
VERTEX
  5
6B8
  8
FISHER___PAYKEL
 62
     7
 10
6.158112589815752
 20
56.07112678725161
 30
0.0
  0
VERTEX
  5
6B9
  8
FISHER___PAYKEL
 62
     7
 10
6.139025832261801
 20
55.88481876867319
 30
0.0
  0
VERTEX
  5
6BA
  8
FISHER___PAYKEL
 62
     7
 10
6.11654441757284
 20
55.69968057533077
 30
0.0
  0
VERTEX
  5
6BB
  8
FISHER___PAYKEL
 62
     7
 10
6.090691680887824
 20
55.51578229338566
 30
0.0
  0
VERTEX
  5
6BC
  8
FISHER___PAYKEL
 62
     7
 10
6.061490957345711
 20
55.33319400899913
 30
0.0
  0
VERTEX
  5
6BD
  8
FISHER___PAYKEL
 62
     7
 10
6.028965582085459
 20
55.1519858083325
 30
0.0
  0
VERTEX
  5
6BE
  8
FISHER___PAYKEL
 62
     7
 10
5.993138890246025
 20
54.97222777754705
 30
0.0
  0
VERTEX
  5
6BF
  8
FISHER___PAYKEL
 62
     7
 10
5.954034216966363
 20
54.79399000280409
 30
0.0
  0
VERTEX
  5
6C0
  8
FISHER___PAYKEL
 62
     7
 10
5.911674897385431
 20
54.6173425702649
 30
0.0
  0
VERTEX
  5
6C1
  8
FISHER___PAYKEL
 62
     7
 10
5.866084266642186
 20
54.44235556609078
 30
0.0
  0
VERTEX
  5
6C2
  8
FISHER___PAYKEL
 62
     7
 10
5.817285659875585
 20
54.26909907644303
 30
0.0
  0
VERTEX
  5
6C3
  8
FISHER___PAYKEL
 62
     7
 10
5.765302412224585
 20
54.09764318748294
 30
0.0
  0
VERTEX
  5
6C4
  8
FISHER___PAYKEL
 62
     7
 10
5.710157858828142
 20
53.92805798537182
 30
0.0
  0
VERTEX
  5
6C5
  8
FISHER___PAYKEL
 62
     7
 10
5.651875334825212
 20
53.76041355627095
 30
0.0
  0
VERTEX
  5
6C6
  8
FISHER___PAYKEL
 62
     7
 10
5.590478175354754
 20
53.59477998634162
 30
0.0
  0
VERTEX
  5
6C7
  8
FISHER___PAYKEL
 62
     7
 10
5.525989715555722
 20
53.43122736174515
 30
0.0
  0
VERTEX
  5
6C8
  8
FISHER___PAYKEL
 62
     7
 10
5.458433290567076
 20
53.26982576864282
 30
0.0
  0
VERTEX
  5
6C9
  8
FISHER___PAYKEL
 62
     7
 10
5.387832235527769
 20
53.11064529319592
 30
0.0
  0
VERTEX
  5
6CA
  8
FISHER___PAYKEL
 62
     7
 10
5.31420988557676
 20
52.95375602156575
 30
0.0
  0
VERTEX
  5
6CB
  8
FISHER___PAYKEL
 62
     7
 10
5.237589575853006
 20
52.79922803991361
 30
0.0
  0
VERTEX
  5
6CC
  8
FISHER___PAYKEL
 62
     7
 10
5.157994641495462
 20
52.64713143440079
 30
0.0
  0
VERTEX
  5
6CD
  8
FISHER___PAYKEL
 62
     7
 10
5.075448417643088
 20
52.4975362911886
 30
0.0
  0
VERTEX
  5
6CE
  8
FISHER___PAYKEL
 62
     7
 10
4.989974239434837
 20
52.35051269643832
 30
0.0
  0
VERTEX
  5
6CF
  8
FISHER___PAYKEL
 62
     7
 10
4.901595442009667
 20
52.20613073631124
 30
0.0
  0
VERTEX
  5
6D0
  8
FISHER___PAYKEL
 62
     7
 10
4.810335360506536
 20
52.06446049696868
 30
0.0
  0
VERTEX
  5
6D1
  8
FISHER___PAYKEL
 62
     7
 10
4.716217330064399
 20
51.92557206457191
 30
0.0
  0
VERTEX
  5
6D2
  8
FISHER___PAYKEL
 62
     7
 10
4.619264685822214
 20
51.78953552528224
 30
0.0
  0
VERTEX
  5
6D3
  8
FISHER___PAYKEL
 62
     7
 10
4.519500762918938
 20
51.65642096526096
 30
0.0
  0
VERTEX
  5
6D4
  8
FISHER___PAYKEL
 62
     7
 10
4.416948896493526
 20
51.52629847066937
 30
0.0
  0
VERTEX
  5
6D5
  8
FISHER___PAYKEL
 62
     7
 10
4.311632421684936
 20
51.39923812766877
 30
0.0
  0
VERTEX
  5
6D6
  8
FISHER___PAYKEL
 62
     7
 10
4.203574673632126
 20
51.27531002242044
 30
0.0
  0
VERTEX
  5
6D7
  8
FISHER___PAYKEL
 62
     7
 10
4.092798987474048
 20
51.15458424108569
 30
0.0
  0
VERTEX
  5
6D8
  8
FISHER___PAYKEL
 62
     7
 10
3.979328698349665
 20
51.0371308698258
 30
0.0
  0
VERTEX
  5
6D9
  8
FISHER___PAYKEL
 62
     7
 10
3.863187141397929
 20
50.92301999480208
 30
0.0
  0
VERTEX
  5
6DA
  8
FISHER___PAYKEL
 62
     7
 10
3.744397651757799
 20
50.81232170217582
 30
0.0
  0
VERTEX
  5
6DB
  8
FISHER___PAYKEL
 62
     7
 10
3.622983564568232
 20
50.70510607810832
 30
0.0
  0
VERTEX
  5
6DC
  8
FISHER___PAYKEL
 62
     7
 10
3.498968214968183
 20
50.60144320876087
 30
0.0
  0
VERTEX
  5
6DD
  8
FISHER___PAYKEL
 62
     7
 10
3.37237493809661
 20
50.50140318029477
 30
0.0
  0
VERTEX
  5
6DE
  8
FISHER___PAYKEL
 62
     7
 10
3.24322706909247
 20
50.40505607887131
 30
0.0
  0
VERTEX
  5
6DF
  8
FISHER___PAYKEL
 62
     7
 10
3.111547943094719
 20
50.31247199065179
 30
0.0
  0
VERTEX
  5
6E0
  8
FISHER___PAYKEL
 62
     7
 10
2.977360895242313
 20
50.2237210017975
 30
0.0
  0
VERTEX
  5
6E1
  8
FISHER___PAYKEL
 62
     7
 10
2.84068926067421
 20
50.13887319846974
 30
0.0
  0
VERTEX
  5
6E2
  8
FISHER___PAYKEL
 62
     7
 10
2.701556374529367
 20
50.0579986668298
 30
0.0
  0
VERTEX
  5
6E3
  8
FISHER___PAYKEL
 62
     7
 10
2.55998557194674
 20
49.981167493039
 30
0.0
  0
VERTEX
  5
6E4
  8
FISHER___PAYKEL
 62
     7
 10
2.416000188065285
 20
49.9084497632586
 30
0.0
  0
VERTEX
  5
6E5
  8
FISHER___PAYKEL
 62
     7
 10
2.269623558023961
 20
49.83991556364992
 30
0.0
  0
VERTEX
  5
6E6
  8
FISHER___PAYKEL
 62
     7
 10
2.120879016961723
 20
49.77563498037424
 30
0.0
  0
VERTEX
  5
6E7
  8
FISHER___PAYKEL
 62
     7
 10
1.969789900017528
 20
49.71567809959286
 30
0.0
  0
VERTEX
  5
6E8
  8
FISHER___PAYKEL
 62
     7
 10
1.816379542330333
 20
49.66011500746708
 30
0.0
  0
VERTEX
  5
6E9
  8
FISHER___PAYKEL
 62
     7
 10
1.660671279039094
 20
49.6090157901582
 30
0.0
  0
VERTEX
  5
6EA
  8
FISHER___PAYKEL
 62
     7
 10
1.502688445282769
 20
49.56245053382752
 30
0.0
  0
VERTEX
  5
6EB
  8
FISHER___PAYKEL
 62
     7
 10
1.342454376200314
 20
49.5204893246363
 30
0.0
  0
VERTEX
  5
6EC
  8
FISHER___PAYKEL
 62
     7
 10
1.179992406930685
 20
49.48320224874587
 30
0.0
  0
VERTEX
  5
6ED
  8
FISHER___PAYKEL
 62
     7
 10
1.01532587261284
 20
49.45065939231753
 30
0.0
  0
VERTEX
  5
6EE
  8
FISHER___PAYKEL
 62
     7
 10
0.8484781083857361
 20
49.42293084151255
 30
0.0
  0
VERTEX
  5
6EF
  8
FISHER___PAYKEL
 62
     7
 10
0.6794724493883286
 20
49.40008668249223
 30
0.0
  0
VERTEX
  5
6F0
  8
FISHER___PAYKEL
 62
     7
 10
0.508332230759575
 20
49.38219700141788
 30
0.0
  0
VERTEX
  5
6F1
  8
FISHER___PAYKEL
 62
     7
 10
0.335080787638432
 20
49.36933188445079
 30
0.0
  0
VERTEX
  5
6F2
  8
FISHER___PAYKEL
 62
     7
 10
0.1597414551638561
 20
49.36156141775225
 30
0.0
  0
VERTEX
  5
6F3
  8
FISHER___PAYKEL
 62
     7
 10
-0.0176624315251956
 20
49.35895568748356
 30
0.0
  0
VERTEX
  5
6F4
  8
FISHER___PAYKEL
 62
     7
 10
-0.1948753980202939
 20
49.36153073487058
 30
0.0
  0
VERTEX
  5
6F5
  8
FISHER___PAYKEL
 62
     7
 10
-0.3699738295015574
 20
49.36921044483491
 30
0.0
  0
VERTEX
  5
6F6
  8
FISHER___PAYKEL
 62
     7
 10
-0.5429360864629642
 20
49.38192666908146
 30
0.0
  0
VERTEX
  5
6F7
  8
FISHER___PAYKEL
 62
     7
 10
-0.713740529398492
 20
49.39961125931515
 30
0.0
  0
VERTEX
  5
6F8
  8
FISHER___PAYKEL
 62
     7
 10
-0.8823655188021186
 20
49.4221960672409
 30
0.0
  0
VERTEX
  5
6F9
  8
FISHER___PAYKEL
 62
     7
 10
-1.048789415167822
 20
49.44961294456363
 30
0.0
  0
VERTEX
  5
6FA
  8
FISHER___PAYKEL
 62
     7
 10
-1.21299057898958
 20
49.48179374298823
 30
0.0
  0
VERTEX
  5
6FB
  8
FISHER___PAYKEL
 62
     7
 10
-1.374947370761371
 20
49.51867031421965
 30
0.0
  0
VERTEX
  5
6FC
  8
FISHER___PAYKEL
 62
     7
 10
-1.534638150977171
 20
49.56017450996279
 30
0.0
  0
VERTEX
  5
6FD
  8
FISHER___PAYKEL
 62
     7
 10
-1.692041280130961
 20
49.60623818192256
 30
0.0
  0
VERTEX
  5
6FE
  8
FISHER___PAYKEL
 62
     7
 10
-1.847135118716716
 20
49.65679318180387
 30
0.0
  0
VERTEX
  5
6FF
  8
FISHER___PAYKEL
 62
     7
 10
-1.999898027228415
 20
49.71177136131165
 30
0.0
  0
VERTEX
  5
700
  8
FISHER___PAYKEL
 62
     7
 10
-2.150308366160036
 20
49.7711045721508
 30
0.0
  0
VERTEX
  5
701
  8
FISHER___PAYKEL
 62
     7
 10
-2.298344496005556
 20
49.83472466602626
 30
0.0
  0
VERTEX
  5
702
  8
FISHER___PAYKEL
 62
     7
 10
-2.443984777258954
 20
49.90256349464293
 30
0.0
  0
VERTEX
  5
703
  8
FISHER___PAYKEL
 62
     7
 10
-2.587207570414208
 20
49.97455290970572
 30
0.0
  0
VERTEX
  5
704
  8
FISHER___PAYKEL
 62
     7
 10
-2.727991235965294
 20
50.05062476291955
 30
0.0
  0
VERTEX
  5
705
  8
FISHER___PAYKEL
 62
     7
 10
-2.866314134406192
 20
50.13071090598935
 30
0.0
  0
VERTEX
  5
706
  8
FISHER___PAYKEL
 62
     7
 10
-3.002154626230879
 20
50.21474319062
 30
0.0
  0
VERTEX
  5
707
  8
FISHER___PAYKEL
 62
     7
 10
-3.135491071933332
 20
50.30265346851645
 30
0.0
  0
VERTEX
  5
708
  8
FISHER___PAYKEL
 62
     7
 10
-3.266301832007531
 20
50.3943735913836
 30
0.0
  0
VERTEX
  5
709
  8
FISHER___PAYKEL
 62
     7
 10
-3.394565266947452
 20
50.48983541092637
 30
0.0
  0
VERTEX
  5
70A
  8
FISHER___PAYKEL
 62
     7
 10
-3.520259737247073
 20
50.58897077884967
 30
0.0
  0
VERTEX
  5
70B
  8
FISHER___PAYKEL
 62
     7
 10
-3.643363603400372
 20
50.69171154685842
 30
0.0
  0
VERTEX
  5
70C
  8
FISHER___PAYKEL
 62
     7
 10
-3.763855225901328
 20
50.79798956665753
 30
0.0
  0
VERTEX
  5
70D
  8
FISHER___PAYKEL
 62
     7
 10
-3.881712965243918
 20
50.90773668995193
 30
0.0
  0
VERTEX
  5
70E
  8
FISHER___PAYKEL
 62
     7
 10
-3.996915181922119
 20
51.02088476844652
 30
0.0
  0
VERTEX
  5
70F
  8
FISHER___PAYKEL
 62
     7
 10
-4.109440236429911
 20
51.13736565384622
 30
0.0
  0
VERTEX
  5
710
  8
FISHER___PAYKEL
 62
     7
 10
-4.219266489261269
 20
51.25711119785594
 30
0.0
  0
VERTEX
  5
711
  8
FISHER___PAYKEL
 62
     7
 10
-4.326372300910173
 20
51.3800532521806
 30
0.0
  0
VERTEX
  5
712
  8
FISHER___PAYKEL
 62
     7
 10
-4.430736031870602
 20
51.50612366852512
 30
0.0
  0
VERTEX
  5
713
  8
FISHER___PAYKEL
 62
     7
 10
-4.53233604263653
 20
51.63525429859442
 30
0.0
  0
VERTEX
  5
714
  8
FISHER___PAYKEL
 62
     7
 10
-4.631150693701938
 20
51.7673769940934
 30
0.0
  0
VERTEX
  5
715
  8
FISHER___PAYKEL
 62
     7
 10
-4.727158345560802
 20
51.90242360672698
 30
0.0
  0
VERTEX
  5
716
  8
FISHER___PAYKEL
 62
     7
 10
-4.820337358707102
 20
52.04032598820007
 30
0.0
  0
VERTEX
  5
717
  8
FISHER___PAYKEL
 62
     7
 10
-4.910666093634814
 20
52.18101599021761
 30
0.0
  0
VERTEX
  5
718
  8
FISHER___PAYKEL
 62
     7
 10
-4.998122910837916
 20
52.32442546448449
 30
0.0
  0
VERTEX
  5
719
  8
FISHER___PAYKEL
 62
     7
 10
-5.082686170810387
 20
52.47048626270563
 30
0.0
  0
VERTEX
  5
71A
  8
FISHER___PAYKEL
 62
     7
 10
-5.164334234046205
 20
52.61913023658595
 30
0.0
  0
VERTEX
  5
71B
  8
FISHER___PAYKEL
 62
     7
 10
-5.243045461039346
 20
52.77028923783038
 30
0.0
  0
VERTEX
  5
71C
  8
FISHER___PAYKEL
 62
     7
 10
-5.318798212283788
 20
52.92389511814381
 30
0.0
  0
VERTEX
  5
71D
  8
FISHER___PAYKEL
 62
     7
 10
-5.391570848273512
 20
53.07987972923116
 30
0.0
  0
VERTEX
  5
71E
  8
FISHER___PAYKEL
 62
     7
 10
-5.461341729502493
 20
53.23817492279735
 30
0.0
  0
VERTEX
  5
71F
  8
FISHER___PAYKEL
 62
     7
 10
-5.528089216464709
 20
53.3987125505473
 30
0.0
  0
VERTEX
  5
720
  8
FISHER___PAYKEL
 62
     7
 10
-5.591791669654139
 20
53.56142446418592
 30
0.0
  0
VERTEX
  5
721
  8
FISHER___PAYKEL
 62
     7
 10
-5.652427449564759
 20
53.72624251541812
 30
0.0
  0
VERTEX
  5
722
  8
FISHER___PAYKEL
 62
     7
 10
-5.709974916690549
 20
53.89309855594883
 30
0.0
  0
VERTEX
  5
723
  8
FISHER___PAYKEL
 62
     7
 10
-5.764412431525486
 20
54.06192443748296
 30
0.0
  0
VERTEX
  5
724
  8
FISHER___PAYKEL
 62
     7
 10
-5.815718354563547
 20
54.23265201172541
 30
0.0
  0
VERTEX
  5
725
  8
FISHER___PAYKEL
 62
     7
 10
-5.863871046298712
 20
54.40521313038112
 30
0.0
  0
VERTEX
  5
726
  8
FISHER___PAYKEL
 62
     7
 10
-5.908848867224958
 20
54.57953964515499
 30
0.0
  0
VERTEX
  5
727
  8
FISHER___PAYKEL
 62
     7
 10
-5.95063017783626
 20
54.75556340775194
 30
0.0
  0
VERTEX
  5
728
  8
FISHER___PAYKEL
 62
     7
 10
-5.9891933386266
 20
54.93321626987688
 30
0.0
  0
VERTEX
  5
729
  8
FISHER___PAYKEL
 62
     7
 10
-6.024516710089954
 20
55.11243008323473
 30
0.0
  0
VERTEX
  5
72A
  8
FISHER___PAYKEL
 62
     7
 10
-6.0565786527203
 20
55.29313669953041
 30
0.0
  0
VERTEX
  5
72B
  8
FISHER___PAYKEL
 62
     7
 10
-6.085357527011615
 20
55.47526797046883
 30
0.0
  0
VERTEX
  5
72C
  8
FISHER___PAYKEL
 62
     7
 10
-6.110831693457878
 20
55.6587557477549
 30
0.0
  0
VERTEX
  5
72D
  8
FISHER___PAYKEL
 62
     7
 10
-6.132979512553067
 20
55.84353188309355
 30
0.0
  0
VERTEX
  5
72E
  8
FISHER___PAYKEL
 62
     7
 10
-6.15177934479116
 20
56.02952822818968
 30
0.0
  0
VERTEX
  5
72F
  8
FISHER___PAYKEL
 62
     7
 10
-6.167209550666134
 20
56.2166766347482
 30
0.0
  0
VERTEX
  5
730
  8
FISHER___PAYKEL
 62
     7
 10
-6.179248490671966
 20
56.40490895447405
 30
0.0
  0
VERTEX
  5
731
  8
FISHER___PAYKEL
 62
     7
 10
-6.187874525302636
 20
56.59415703907213
 30
0.0
  0
VERTEX
  5
732
  8
FISHER___PAYKEL
 62
     7
 10
-6.193066015052121
 20
56.78435274024736
 30
0.0
  0
SEQEND
  5
733
  8
FISHER___PAYKEL
 62
     7
  0
POLYLINE
  5
734
  8
FISHER___PAYKEL
 62
     7
 66
     1
 10
0.0
 20
0.0
 30
0.0
 70
     1
  0
VERTEX
  5
735
  8
FISHER___PAYKEL
 62
     7
 10
519.3389597906973
 20
56.97542790970465
 30
0.0
  0
VERTEX
  5
736
  8
FISHER___PAYKEL
 62
     7
 10
519.3389597906973
 20
57.01776124303842
 30
0.0
  0
VERTEX
  5
737
  8
FISHER___PAYKEL
 62
     7
 10
519.3375212210985
 20
57.1793033314411
 30
0.0
  0
VERTEX
  5
738
  8
FISHER___PAYKEL
 62
     7
 10
519.3332183237512
 20
57.34043103945233
 30
0.0
  0
VERTEX
  5
739
  8
FISHER___PAYKEL
 62
     7
 10
519.3260703158285
 20
57.50107621877704
 30
0.0
  0
VERTEX
  5
73A
  8
FISHER___PAYKEL
 62
     7
 10
519.3160964145037
 20
57.66117072112014
 30
0.0
  0
VERTEX
  5
73B
  8
FISHER___PAYKEL
 62
     7
 10
519.3033158369501
 20
57.82064639818655
 30
0.0
  0
VERTEX
  5
73C
  8
FISHER___PAYKEL
 62
     7
 10
519.2877478003409
 20
57.97943510168118
 30
0.0
  0
VERTEX
  5
73D
  8
FISHER___PAYKEL
 62
     7
 10
519.2694115218494
 20
58.13746868330895
 30
0.0
  0
VERTEX
  5
73E
  8
FISHER___PAYKEL
 62
     7
 10
519.2483262186488
 20
58.29467899477477
 30
0.0
  0
VERTEX
  5
73F
  8
FISHER___PAYKEL
 62
     7
 10
519.2245111079123
 20
58.45099788778355
 30
0.0
  0
VERTEX
  5
740
  8
FISHER___PAYKEL
 62
     7
 10
519.1979854068135
 20
58.60635721404022
 30
0.0
  0
VERTEX
  5
741
  8
FISHER___PAYKEL
 62
     7
 10
519.1687683325251
 20
58.76068882524967
 30
0.0
  0
VERTEX
  5
742
  8
FISHER___PAYKEL
 62
     7
 10
519.1368791022209
 20
58.91392457311686
 30
0.0
  0
VERTEX
  5
743
  8
FISHER___PAYKEL
 62
     7
 10
519.1023369330737
 20
59.06599630934667
 30
0.0
  0
VERTEX
  5
744
  8
FISHER___PAYKEL
 62
     7
 10
519.0651610422572
 20
59.21683588564402
 30
0.0
  0
VERTEX
  5
745
  8
FISHER___PAYKEL
 62
     7
 10
519.0253706469443
 20
59.36637515371383
 30
0.0
  0
VERTEX
  5
746
  8
FISHER___PAYKEL
 62
     7
 10
518.9829849643086
 20
59.51454596526102
 30
0.0
  0
VERTEX
  5
747
  8
FISHER___PAYKEL
 62
     7
 10
518.9380232115232
 20
59.6612801719905
 30
0.0
  0
VERTEX
  5
748
  8
FISHER___PAYKEL
 62
     7
 10
518.8905046057611
 20
59.80650962560718
 30
0.0
  0
VERTEX
  5
749
  8
FISHER___PAYKEL
 62
     7
 10
518.8404483641958
 20
59.95016617781599
 30
0.0
  0
VERTEX
  5
74A
  8
FISHER___PAYKEL
 62
     7
 10
518.7878737040005
 20
60.09218168032183
 30
0.0
  0
VERTEX
  5
74B
  8
FISHER___PAYKEL
 62
     7
 10
518.7327998423486
 20
60.23248798482962
 30
0.0
  0
VERTEX
  5
74C
  8
FISHER___PAYKEL
 62
     7
 10
518.6752459964132
 20
60.37101694304428
 30
0.0
  0
VERTEX
  5
74D
  8
FISHER___PAYKEL
 62
     7
 10
518.6152313833677
 20
60.50770040667072
 30
0.0
  0
VERTEX
  5
74E
  8
FISHER___PAYKEL
 62
     7
 10
518.5527752203852
 20
60.64247022741387
 30
0.0
  0
VERTEX
  5
74F
  8
FISHER___PAYKEL
 62
     7
 10
518.4878967246391
 20
60.77525825697862
 30
0.0
  0
VERTEX
  5
750
  8
FISHER___PAYKEL
 62
     7
 10
518.4206151133025
 20
60.90599634706991
 30
0.0
  0
VERTEX
  5
751
  8
FISHER___PAYKEL
 62
     7
 10
518.3509496035488
 20
61.03461634939264
 30
0.0
  0
VERTEX
  5
752
  8
FISHER___PAYKEL
 62
     7
 10
518.2789194125511
 20
61.16105011565173
 30
0.0
  0
VERTEX
  5
753
  8
FISHER___PAYKEL
 62
     7
 10
518.2045437574827
 20
61.28522949755209
 30
0.0
  0
VERTEX
  5
754
  8
FISHER___PAYKEL
 62
     7
 10
518.1278418555171
 20
61.40708634679865
 30
0.0
  0
VERTEX
  5
755
  8
FISHER___PAYKEL
 62
     7
 10
518.0488329238273
 20
61.52655251509631
 30
0.0
  0
VERTEX
  5
756
  8
FISHER___PAYKEL
 62
     7
 10
517.9675361795867
 20
61.64355985415
 30
0.0
  0
VERTEX
  5
757
  8
FISHER___PAYKEL
 62
     7
 10
517.8839708399684
 20
61.75804021566462
 30
0.0
  0
VERTEX
  5
758
  8
FISHER___PAYKEL
 62
     7
 10
517.7981561221458
 20
61.86992545134509
 30
0.0
  0
VERTEX
  5
759
  8
FISHER___PAYKEL
 62
     7
 10
517.7101112432921
 20
61.97914741289633
 30
0.0
  0
VERTEX
  5
75A
  8
FISHER___PAYKEL
 62
     7
 10
517.6198554205805
 20
62.08563795202326
 30
0.0
  0
VERTEX
  5
75B
  8
FISHER___PAYKEL
 62
     7
 10
517.5274078711843
 20
62.18932892043078
 30
0.0
  0
VERTEX
  5
75C
  8
FISHER___PAYKEL
 62
     7
 10
517.4327878122771
 20
62.29015216982382
 30
0.0
  0
VERTEX
  5
75D
  8
FISHER___PAYKEL
 62
     7
 10
517.3360144610316
 20
62.38803955190728
 30
0.0
  0
VERTEX
  5
75E
  8
FISHER___PAYKEL
 62
     7
 10
517.2371070346214
 20
62.48292291838609
 30
0.0
  0
VERTEX
  5
75F
  8
FISHER___PAYKEL
 62
     7
 10
517.1360847502197
 20
62.57473412096517
 30
0.0
  0
VERTEX
  5
760
  8
FISHER___PAYKEL
 62
     7
 10
517.0329668249996
 20
62.66340501134941
 30
0.0
  0
VERTEX
  5
761
  8
FISHER___PAYKEL
 62
     7
 10
516.9277724761345
 20
62.74886744124375
 30
0.0
  0
VERTEX
  5
762
  8
FISHER___PAYKEL
 62
     7
 10
516.8205209207977
 20
62.83105326235309
 30
0.0
  0
VERTEX
  5
763
  8
FISHER___PAYKEL
 62
     7
 10
516.7112313761623
 20
62.90989432638236
 30
0.0
  0
VERTEX
  5
764
  8
FISHER___PAYKEL
 62
     7
 10
516.5999230594018
 20
62.98532248503646
 30
0.0
  0
VERTEX
  5
765
  8
FISHER___PAYKEL
 62
     7
 10
516.4866151876893
 20
63.0572695900203
 30
0.0
  0
VERTEX
  5
766
  8
FISHER___PAYKEL
 62
     7
 10
516.3713269781979
 20
63.12566749303883
 30
0.0
  0
VERTEX
  5
767
  8
FISHER___PAYKEL
 62
     7
 10
516.2540776481012
 20
63.19044804579694
 30
0.0
  0
VERTEX
  5
768
  8
FISHER___PAYKEL
 62
     7
 10
516.1348864145721
 20
63.25154309999955
 30
0.0
  0
VERTEX
  5
769
  8
FISHER___PAYKEL
 62
     7
 10
516.0137724947842
 20
63.30888450735156
 30
0.0
  0
VERTEX
  5
76A
  8
FISHER___PAYKEL
 62
     7
 10
515.8907551059106
 20
63.36240411955792
 30
0.0
  0
VERTEX
  5
76B
  8
FISHER___PAYKEL
 62
     7
 10
515.7658534651246
 20
63.41203378832351
 30
0.0
  0
VERTEX
  5
76C
  8
FISHER___PAYKEL
 62
     7
 10
515.6390867895993
 20
63.45770536535326
 30
0.0
  0
VERTEX
  5
76D
  8
FISHER___PAYKEL
 62
     7
 10
515.5104742965082
 20
63.49935070235209
 30
0.0
  0
VERTEX
  5
76E
  8
FISHER___PAYKEL
 62
     7
 10
515.3800352030244
 20
63.53690165102491
 30
0.0
  0
VERTEX
  5
76F
  8
FISHER___PAYKEL
 62
     7
 10
515.2477887263212
 20
63.57029006307664
 30
0.0
  0
VERTEX
  5
770
  8
FISHER___PAYKEL
 62
     7
 10
515.1137540835718
 20
63.59944779021218
 30
0.0
  0
VERTEX
  5
771
  8
FISHER___PAYKEL
 62
     7
 10
514.9779504919496
 20
63.62430668413646
 30
0.0
  0
VERTEX
  5
772
  8
FISHER___PAYKEL
 62
     7
 10
514.8403971686278
 20
63.64479859655441
 30
0.0
  0
VERTEX
  5
773
  8
FISHER___PAYKEL
 62
     7
 10
514.7011133307794
 20
63.66085537917091
 30
0.0
  0
VERTEX
  5
774
  8
FISHER___PAYKEL
 62
     7
 10
514.5601181955781
 20
63.67240888369091
 30
0.0
  0
VERTEX
  5
775
  8
FISHER___PAYKEL
 62
     7
 10
514.4174309801967
 20
63.6793909618193
 30
0.0
  0
VERTEX
  5
776
  8
FISHER___PAYKEL
 62
     7
 10
514.273070901809
 20
63.681733465261
 30
0.0
  0
VERTEX
  5
777
  8
FISHER___PAYKEL
 62
     7
 10
514.128904300522
 20
63.67941910125157
 30
0.0
  0
VERTEX
  5
778
  8
FISHER___PAYKEL
 62
     7
 10
513.9864655491953
 20
63.67252031099804
 30
0.0
  0
VERTEX
  5
779
  8
FISHER___PAYKEL
 62
     7
 10
513.8457720078804
 20
63.66110354716255
 30
0.0
  0
VERTEX
  5
77A
  8
FISHER___PAYKEL
 62
     7
 10
513.7068410366288
 20
63.64523526240727
 30
0.0
  0
VERTEX
  5
77B
  8
FISHER___PAYKEL
 62
     7
 10
513.5696899954919
 20
63.62498190939434
 30
0.0
  0
VERTEX
  5
77C
  8
FISHER___PAYKEL
 62
     7
 10
513.4343362445213
 20
63.60040994078589
 30
0.0
  0
VERTEX
  5
77D
  8
FISHER___PAYKEL
 62
     7
 10
513.3007971437684
 20
63.57158580924411
 30
0.0
  0
VERTEX
  5
77E
  8
FISHER___PAYKEL
 62
     7
 10
513.1690900532845
 20
63.53857596743114
 30
0.0
  0
VERTEX
  5
77F
  8
FISHER___PAYKEL
 62
     7
 10
513.0392323331214
 20
63.50144686800911
 30
0.0
  0
VERTEX
  5
780
  8
FISHER___PAYKEL
 62
     7
 10
512.9112413433304
 20
63.46026496364017
 30
0.0
  0
VERTEX
  5
781
  8
FISHER___PAYKEL
 62
     7
 10
512.785134443963
 20
63.41509670698648
 30
0.0
  0
VERTEX
  5
782
  8
FISHER___PAYKEL
 62
     7
 10
512.6609289950705
 20
63.36600855071021
 30
0.0
  0
VERTEX
  5
783
  8
FISHER___PAYKEL
 62
     7
 10
512.5386423567047
 20
63.31306694747347
 30
0.0
  0
VERTEX
  5
784
  8
FISHER___PAYKEL
 62
     7
 10
512.4182918889169
 20
63.25633834993844
 30
0.0
  0
VERTEX
  5
785
  8
FISHER___PAYKEL
 62
     7
 10
512.2998949517585
 20
63.19588921076726
 30
0.0
  0
VERTEX
  5
786
  8
FISHER___PAYKEL
 62
     7
 10
512.183468905281
 20
63.13178598262208
 30
0.0
  0
VERTEX
  5
787
  8
FISHER___PAYKEL
 62
     7
 10
512.0690311095359
 20
63.06409511816505
 30
0.0
  0
VERTEX
  5
788
  8
FISHER___PAYKEL
 62
     7
 10
511.9565989245748
 20
62.99288307005832
 30
0.0
  0
VERTEX
  5
789
  8
FISHER___PAYKEL
 62
     7
 10
511.846189710449
 20
62.91821629096404
 30
0.0
  0
VERTEX
  5
78A
  8
FISHER___PAYKEL
 62
     7
 10
511.7378208272102
 20
62.84016123354436
 30
0.0
  0
VERTEX
  5
78B
  8
FISHER___PAYKEL
 62
     7
 10
511.6315096349095
 20
62.75878435046143
 30
0.0
  0
VERTEX
  5
78C
  8
FISHER___PAYKEL
 62
     7
 10
511.5272734935987
 20
62.6741520943774
 30
0.0
  0
VERTEX
  5
78D
  8
FISHER___PAYKEL
 62
     7
 10
511.4251297633292
 20
62.58633091795443
 30
0.0
  0
VERTEX
  5
78E
  8
FISHER___PAYKEL
 62
     7
 10
511.3250958041524
 20
62.49538727385466
 30
0.0
  0
VERTEX
  5
78F
  8
FISHER___PAYKEL
 62
     7
 10
511.2271889761198
 20
62.40138761474024
 30
0.0
  0
VERTEX
  5
790
  8
FISHER___PAYKEL
 62
     7
 10
511.1314266392828
 20
62.30439839327332
 30
0.0
  0
VERTEX
  5
791
  8
FISHER___PAYKEL
 62
     7
 10
511.037826153693
 20
62.20448606211605
 30
0.0
  0
VERTEX
  5
792
  8
FISHER___PAYKEL
 62
     7
 10
510.9464048794018
 20
62.10171707393058
 30
0.0
  0
VERTEX
  5
793
  8
FISHER___PAYKEL
 62
     7
 10
510.8571801764607
 20
61.99615788137906
 30
0.0
  0
VERTEX
  5
794
  8
FISHER___PAYKEL
 62
     7
 10
510.7701694049213
 20
61.88787493712365
 30
0.0
  0
VERTEX
  5
795
  8
FISHER___PAYKEL
 62
     7
 10
510.6853899248349
 20
61.77693469382648
 30
0.0
  0
VERTEX
  5
796
  8
FISHER___PAYKEL
 62
     7
 10
510.6028590962529
 20
61.66340360414972
 30
0.0
  0
VERTEX
  5
797
  8
FISHER___PAYKEL
 62
     7
 10
510.522594279227
 20
61.54734812075552
 30
0.0
  0
VERTEX
  5
798
  8
FISHER___PAYKEL
 62
     7
 10
510.4446128338085
 20
61.428834696306
 30
0.0
  0
VERTEX
  5
799
  8
FISHER___PAYKEL
 62
     7
 10
510.368932120049
 20
61.30792978346334
 30
0.0
  0
VERTEX
  5
79A
  8
FISHER___PAYKEL
 62
     7
 10
510.2955694979998
 20
61.18469983488968
 30
0.0
  0
VERTEX
  5
79B
  8
FISHER___PAYKEL
 62
     7
 10
510.2245423277126
 20
61.05921130324718
 30
0.0
  0
VERTEX
  5
79C
  8
FISHER___PAYKEL
 62
     7
 10
510.1558679692387
 20
60.93153064119798
 30
0.0
  0
VERTEX
  5
79D
  8
FISHER___PAYKEL
 62
     7
 10
510.0895637826296
 20
60.80172430140423
 30
0.0
  0
VERTEX
  5
79E
  8
FISHER___PAYKEL
 62
     7
 10
510.0256471279368
 20
60.66985873652808
 30
0.0
  0
VERTEX
  5
79F
  8
FISHER___PAYKEL
 62
     7
 10
509.9641353652119
 20
60.53600039923169
 30
0.0
  0
VERTEX
  5
7A0
  8
FISHER___PAYKEL
 62
     7
 10
509.9050458545062
 20
60.4002157421772
 30
0.0
  0
VERTEX
  5
7A1
  8
FISHER___PAYKEL
 62
     7
 10
509.8483959558711
 20
60.26257121802675
 30
0.0
  0
VERTEX
  5
7A2
  8
FISHER___PAYKEL
 62
     7
 10
509.7942030293583
 20
60.12313327944251
 30
0.0
  0
VERTEX
  5
7A3
  8
FISHER___PAYKEL
 62
     7
 10
509.7424844350191
 20
59.98196837908662
 30
0.0
  0
VERTEX
  5
7A4
  8
FISHER___PAYKEL
 62
     7
 10
509.6932575329051
 20
59.83914296962124
 30
0.0
  0
VERTEX
  5
7A5
  8
FISHER___PAYKEL
 62
     7
 10
509.6465396830677
 20
59.6947235037085
 30
0.0
  0
VERTEX
  5
7A6
  8
FISHER___PAYKEL
 62
     7
 10
509.6023482455583
 20
59.54877643401058
 30
0.0
  0
VERTEX
  5
7A7
  8
FISHER___PAYKEL
 62
     7
 10
509.5607005804285
 20
59.4013682131896
 30
0.0
  0
VERTEX
  5
7A8
  8
FISHER___PAYKEL
 62
     7
 10
509.5216140477298
 20
59.25256529390772
 30
0.0
  0
VERTEX
  5
7A9
  8
FISHER___PAYKEL
 62
     7
 10
509.4851060075135
 20
59.1024341288271
 30
0.0
  0
VERTEX
  5
7AA
  8
FISHER___PAYKEL
 62
     7
 10
509.4511938198312
 20
58.95104117060988
 30
0.0
  0
VERTEX
  5
7AB
  8
FISHER___PAYKEL
 62
     7
 10
509.4198948447345
 20
58.79845287191822
 30
0.0
  0
VERTEX
  5
7AC
  8
FISHER___PAYKEL
 62
     7
 10
509.3912264422746
 20
58.64473568541425
 30
0.0
  0
VERTEX
  5
7AD
  8
FISHER___PAYKEL
 62
     7
 10
509.3652059725031
 20
58.48995606376014
 30
0.0
  0
VERTEX
  5
7AE
  8
FISHER___PAYKEL
 62
     7
 10
509.3418507954715
 20
58.33418045961803
 30
0.0
  0
VERTEX
  5
7AF
  8
FISHER___PAYKEL
 62
     7
 10
509.3211782712312
 20
58.17747532565008
 30
0.0
  0
VERTEX
  5
7B0
  8
FISHER___PAYKEL
 62
     7
 10
509.3032057598337
 20
58.01990711451843
 30
0.0
  0
VERTEX
  5
7B1
  8
FISHER___PAYKEL
 62
     7
 10
509.2879506213305
 20
57.86154227888524
 30
0.0
  0
VERTEX
  5
7B2
  8
FISHER___PAYKEL
 62
     7
 10
509.2754302157731
 20
57.70244727141264
 30
0.0
  0
VERTEX
  5
7B3
  8
FISHER___PAYKEL
 62
     7
 10
509.2586630437014
 20
57.38233255159786
 30
0.0
  0
VERTEX
  5
7B4
  8
FISHER___PAYKEL
 62
     7
 10
509.2530431240305
 20
57.06009457637128
 30
0.0
  0
VERTEX
  5
7B5
  8
FISHER___PAYKEL
 62
     7
 10
509.2530431240305
 20
57.01776124303842
 30
0.0
  0
VERTEX
  5
7B6
  8
FISHER___PAYKEL
 62
     7
 10
509.2544791501798
 20
56.85734081582204
 30
0.0
  0
VERTEX
  5
7B7
  8
FISHER___PAYKEL
 62
     7
 10
509.2587745786678
 20
56.69726411762483
 30
0.0
  0
VERTEX
  5
7B8
  8
FISHER___PAYKEL
 62
     7
 10
509.2659104345545
 20
56.53760099237478
 30
0.0
  0
VERTEX
  5
7B9
  8
FISHER___PAYKEL
 62
     7
 10
509.2758677428998
 20
56.37842128399996
 30
0.0
  0
VERTEX
  5
7BA
  8
FISHER___PAYKEL
 62
     7
 10
509.2886275287639
 20
56.21979483642835
 30
0.0
  0
VERTEX
  5
7BB
  8
FISHER___PAYKEL
 62
     7
 10
509.3041708172067
 20
56.06179149358798
 30
0.0
  0
VERTEX
  5
7BC
  8
FISHER___PAYKEL
 62
     7
 10
509.3224786332883
 20
55.90448109940685
 30
0.0
  0
VERTEX
  5
7BD
  8
FISHER___PAYKEL
 62
     7
 10
509.3435320020686
 20
55.74793349781302
 30
0.0
  0
VERTEX
  5
7BE
  8
FISHER___PAYKEL
 62
     7
 10
509.3673119486077
 20
55.59221853273448
 30
0.0
  0
VERTEX
  5
7BF
  8
FISHER___PAYKEL
 62
     7
 10
509.3937994979657
 20
55.43740604809926
 30
0.0
  0
VERTEX
  5
7C0
  8
FISHER___PAYKEL
 62
     7
 10
509.4229756752025
 20
55.28356588783538
 30
0.0
  0
VERTEX
  5
7C1
  8
FISHER___PAYKEL
 62
     7
 10
509.4548215053781
 20
55.13076789587085
 30
0.0
  0
VERTEX
  5
7C2
  8
FISHER___PAYKEL
 62
     7
 10
509.4893180135525
 20
54.97908191613369
 30
0.0
  0
VERTEX
  5
7C3
  8
FISHER___PAYKEL
 62
     7
 10
509.5264462247859
 20
54.82857779255193
 30
0.0
  0
VERTEX
  5
7C4
  8
FISHER___PAYKEL
 62
     7
 10
509.5661871641381
 20
54.67932536905359
 30
0.0
  0
VERTEX
  5
7C5
  8
FISHER___PAYKEL
 62
     7
 10
509.6085218566693
 20
54.53139448956668
 30
0.0
  0
VERTEX
  5
7C6
  8
FISHER___PAYKEL
 62
     7
 10
509.6534313274394
 20
54.38485499801922
 30
0.0
  0
VERTEX
  5
7C7
  8
FISHER___PAYKEL
 62
     7
 10
509.7008966015085
 20
54.23977673833923
 30
0.0
  0
VERTEX
  5
7C8
  8
FISHER___PAYKEL
 62
     7
 10
509.7508987039365
 20
54.09622955445474
 30
0.0
  0
VERTEX
  5
7C9
  8
FISHER___PAYKEL
 62
     7
 10
509.8034186597835
 20
53.95428329029374
 30
0.0
  0
VERTEX
  5
7CA
  8
FISHER___PAYKEL
 62
     7
 10
509.8584374941095
 20
53.81400778978427
 30
0.0
  0
VERTEX
  5
7CB
  8
FISHER___PAYKEL
 62
     7
 10
509.9159362319745
 20
53.67547289685436
 30
0.0
  0
VERTEX
  5
7CC
  8
FISHER___PAYKEL
 62
     7
 10
509.9758958984386
 20
53.53874845543201
 30
0.0
  0
VERTEX
  5
7CD
  8
FISHER___PAYKEL
 62
     7
 10
510.0382975185617
 20
53.40390430944525
 30
0.0
  0
VERTEX
  5
7CE
  8
FISHER___PAYKEL
 62
     7
 10
510.1031221174039
 20
53.27101030282209
 30
0.0
  0
VERTEX
  5
7CF
  8
FISHER___PAYKEL
 62
     7
 10
510.1703507200252
 20
53.14013627949057
 30
0.0
  0
VERTEX
  5
7D0
  8
FISHER___PAYKEL
 62
     7
 10
510.2399643514856
 20
53.01135208337868
 30
0.0
  0
VERTEX
  5
7D1
  8
FISHER___PAYKEL
 62
     7
 10
510.3119440368451
 20
52.88472755841447
 30
0.0
  0
VERTEX
  5
7D2
  8
FISHER___PAYKEL
 62
     7
 10
510.3862708011638
 20
52.76033254852592
 30
0.0
  0
VERTEX
  5
7D3
  8
FISHER___PAYKEL
 62
     7
 10
510.4629256695017
 20
52.63823689764109
 30
0.0
  0
VERTEX
  5
7D4
  8
FISHER___PAYKEL
 62
     7
 10
510.5418896669187
 20
52.51851044968798
 30
0.0
  0
VERTEX
  5
7D5
  8
FISHER___PAYKEL
 62
     7
 10
510.6231438184749
 20
52.4012230485946
 30
0.0
  0
VERTEX
  5
7D6
  8
FISHER___PAYKEL
 62
     7
 10
510.7066691492304
 20
52.28644453828899
 30
0.0
  0
VERTEX
  5
7D7
  8
FISHER___PAYKEL
 62
     7
 10
510.792446684245
 20
52.17424476269915
 30
0.0
  0
VERTEX
  5
7D8
  8
FISHER___PAYKEL
 62
     7
 10
510.8804574485789
 20
52.06469356575312
 30
0.0
  0
VERTEX
  5
7D9
  8
FISHER___PAYKEL
 62
     7
 10
510.9706824672921
 20
51.95786079137889
 30
0.0
  0
VERTEX
  5
7DA
  8
FISHER___PAYKEL
 62
     7
 10
511.0631027654447
 20
51.85381628350451
 30
0.0
  0
VERTEX
  5
7DB
  8
FISHER___PAYKEL
 62
     7
 10
511.1576993680965
 20
51.75262988605799
 30
0.0
  0
VERTEX
  5
7DC
  8
FISHER___PAYKEL
 62
     7
 10
511.2544533003075
 20
51.65437144296734
 30
0.0
  0
VERTEX
  5
7DD
  8
FISHER___PAYKEL
 62
     7
 10
511.3533455871381
 20
51.55911079816057
 30
0.0
  0
VERTEX
  5
7DE
  8
FISHER___PAYKEL
 62
     7
 10
511.4543572536479
 20
51.46691779556573
 30
0.0
  0
VERTEX
  5
7DF
  8
FISHER___PAYKEL
 62
     7
 10
511.5574693248972
 20
51.37786227911081
 30
0.0
  0
VERTEX
  5
7E0
  8
FISHER___PAYKEL
 62
     7
 10
511.6626628259458
 20
51.29201409272386
 30
0.0
  0
VERTEX
  5
7E1
  8
FISHER___PAYKEL
 62
     7
 10
511.7699187818538
 20
51.20944308033287
 30
0.0
  0
VERTEX
  5
7E2
  8
FISHER___PAYKEL
 62
     7
 10
511.8792182176813
 20
51.13021908586587
 30
0.0
  0
VERTEX
  5
7E3
  8
FISHER___PAYKEL
 62
     7
 10
511.9905421584883
 20
51.05441195325088
 30
0.0
  0
VERTEX
  5
7E4
  8
FISHER___PAYKEL
 62
     7
 10
512.1038716293347
 20
50.98209152641592
 30
0.0
  0
VERTEX
  5
7E5
  8
FISHER___PAYKEL
 62
     7
 10
512.2191876552806
 20
50.91332764928902
 30
0.0
  0
VERTEX
  5
7E6
  8
FISHER___PAYKEL
 62
     7
 10
512.3364712613859
 20
50.84819016579817
 30
0.0
  0
VERTEX
  5
7E7
  8
FISHER___PAYKEL
 62
     7
 10
512.4557034727109
 20
50.78674891987141
 30
0.0
  0
VERTEX
  5
7E8
  8
FISHER___PAYKEL
 62
     7
 10
512.5768653143153
 20
50.72907375543677
 30
0.0
  0
VERTEX
  5
7E9
  8
FISHER___PAYKEL
 62
     7
 10
512.6999378112594
 20
50.67523451642225
 30
0.0
  0
VERTEX
  5
7EA
  8
FISHER___PAYKEL
 62
     7
 10
512.824901988603
 20
50.62530104675587
 30
0.0
  0
VERTEX
  5
7EB
  8
FISHER___PAYKEL
 62
     7
 10
512.9517388714062
 20
50.57934319036566
 30
0.0
  0
VERTEX
  5
7EC
  8
FISHER___PAYKEL
 62
     7
 10
513.0804294847289
 20
50.53743079117962
 30
0.0
  0
VERTEX
  5
7ED
  8
FISHER___PAYKEL
 62
     7
 10
513.2109548536314
 20
50.49963369312579
 30
0.0
  0
VERTEX
  5
7EE
  8
FISHER___PAYKEL
 62
     7
 10
513.3432960031735
 20
50.46602174013218
 30
0.0
  0
VERTEX
  5
7EF
  8
FISHER___PAYKEL
 62
     7
 10
513.4774339584153
 20
50.43666477612682
 30
0.0
  0
VERTEX
  5
7F0
  8
FISHER___PAYKEL
 62
     7
 10
513.6133497444166
 20
50.41163264503771
 30
0.0
  0
VERTEX
  5
7F1
  8
FISHER___PAYKEL
 62
     7
 10
513.7510243862378
 20
50.39099519079288
 30
0.0
  0
VERTEX
  5
7F2
  8
FISHER___PAYKEL
 62
     7
 10
513.8904389089387
 20
50.37482225732035
 30
0.0
  0
VERTEX
  5
7F3
  8
FISHER___PAYKEL
 62
     7
 10
514.0315743375793
 20
50.36318368854813
 30
0.0
  0
VERTEX
  5
7F4
  8
FISHER___PAYKEL
 62
     7
 10
514.1744116972197
 20
50.35614932840427
 30
0.0
  0
VERTEX
  5
7F5
  8
FISHER___PAYKEL
 62
     7
 10
514.3189320129197
 20
50.35378902081675
 30
0.0
  0
VERTEX
  5
7F6
  8
FISHER___PAYKEL
 62
     7
 10
514.463258851519
 20
50.35611864552259
 30
0.0
  0
VERTEX
  5
7F7
  8
FISHER___PAYKEL
 62
     7
 10
514.6058477471047
 20
50.36306224893225
 30
0.0
  0
VERTEX
  5
7F8
  8
FISHER___PAYKEL
 62
     7
 10
514.7466815818589
 20
50.37455192498393
 30
0.0
  0
VERTEX
  5
7F9
  8
FISHER___PAYKEL
 62
     7
 10
514.885743237963
 20
50.39051976761579
 30
0.0
  0
VERTEX
  5
7FA
  8
FISHER___PAYKEL
 62
     7
 10
515.0230155975992
 20
50.41089787076605
 30
0.0
  0
VERTEX
  5
7FB
  8
FISHER___PAYKEL
 62
     7
 10
515.1584815429488
 20
50.4356183283729
 30
0.0
  0
VERTEX
  5
7FC
  8
FISHER___PAYKEL
 62
     7
 10
515.292123956194
 20
50.46461323437453
 30
0.0
  0
VERTEX
  5
7FD
  8
FISHER___PAYKEL
 62
     7
 10
515.4239257195168
 20
50.49781468270911
 30
0.0
  0
VERTEX
  5
7FE
  8
FISHER___PAYKEL
 62
     7
 10
515.5538697150985
 20
50.53515476731485
 30
0.0
  0
VERTEX
  5
7FF
  8
FISHER___PAYKEL
 62
     7
 10
515.6819388251212
 20
50.57656558212994
 30
0.0
  0
VERTEX
  5
800
  8
FISHER___PAYKEL
 62
     7
 10
515.8081159317666
 20
50.62197922109259
 30
0.0
  0
VERTEX
  5
801
  8
FISHER___PAYKEL
 62
     7
 10
515.9323839172164
 20
50.67132777814096
 30
0.0
  0
VERTEX
  5
802
  8
FISHER___PAYKEL
 62
     7
 10
516.0547256636526
 20
50.72454334721326
 30
0.0
  0
VERTEX
  5
803
  8
FISHER___PAYKEL
 62
     7
 10
516.1751240532569
 20
50.78155802224767
 30
0.0
  0
VERTEX
  5
804
  8
FISHER___PAYKEL
 62
     7
 10
516.2935619682112
 20
50.84230389718239
 30
0.0
  0
VERTEX
  5
805
  8
FISHER___PAYKEL
 62
     7
 10
516.4100222906973
 20
50.90671306595561
 30
0.0
  0
VERTEX
  5
806
  8
FISHER___PAYKEL
 62
     7
 10
516.5244879028969
 20
50.97471762250553
 30
0.0
  0
VERTEX
  5
807
  8
FISHER___PAYKEL
 62
     7
 10
516.6369416869918
 20
51.04624966077033
 30
0.0
  0
VERTEX
  5
808
  8
FISHER___PAYKEL
 62
     7
 10
516.7473665251639
 20
51.12124127468821
 30
0.0
  0
VERTEX
  5
809
  8
FISHER___PAYKEL
 62
     7
 10
516.8557452995948
 20
51.19962455819735
 30
0.0
  0
VERTEX
  5
80A
  8
FISHER___PAYKEL
 62
     7
 10
516.9620608924665
 20
51.28133160523595
 30
0.0
  0
VERTEX
  5
80B
  8
FISHER___PAYKEL
 62
     7
 10
517.0662961859608
 20
51.3662945097422
 30
0.0
  0
VERTEX
  5
80C
  8
FISHER___PAYKEL
 62
     7
 10
517.1684340622596
 20
51.45444536565431
 30
0.0
  0
VERTEX
  5
80D
  8
FISHER___PAYKEL
 62
     7
 10
517.2684574035444
 20
51.54571626691043
 30
0.0
  0
VERTEX
  5
80E
  8
FISHER___PAYKEL
 62
     7
 10
517.3663490919972
 20
51.64003930744879
 30
0.0
  0
VERTEX
  5
80F
  8
FISHER___PAYKEL
 62
     7
 10
517.4620920097998
 20
51.73734658120756
 30
0.0
  0
VERTEX
  5
810
  8
FISHER___PAYKEL
 62
     7
 10
517.555669039134
 20
51.83757018212495
 30
0.0
  0
VERTEX
  5
811
  8
FISHER___PAYKEL
 62
     7
 10
517.6470630621816
 20
51.94064220413913
 30
0.0
  0
VERTEX
  5
812
  8
FISHER___PAYKEL
 62
     7
 10
517.7362569611244
 20
52.04649474118831
 30
0.0
  0
VERTEX
  5
813
  8
FISHER___PAYKEL
 62
     7
 10
517.8232336181441
 20
52.15505988721067
 30
0.0
  0
VERTEX
  5
814
  8
FISHER___PAYKEL
 62
     7
 10
517.9079759154226
 20
52.26626973614441
 30
0.0
  0
VERTEX
  5
815
  8
FISHER___PAYKEL
 62
     7
 10
517.9904667351417
 20
52.38005638192772
 30
0.0
  0
VERTEX
  5
816
  8
FISHER___PAYKEL
 62
     7
 10
518.070688959483
 20
52.49635191849878
 30
0.0
  0
VERTEX
  5
817
  8
FISHER___PAYKEL
 62
     7
 10
518.1486254706288
 20
52.6150884397958
 30
0.0
  0
VERTEX
  5
818
  8
FISHER___PAYKEL
 62
     7
 10
518.2242591507606
 20
52.73619803975696
 30
0.0
  0
VERTEX
  5
819
  8
FISHER___PAYKEL
 62
     7
 10
518.2975728820601
 20
52.85961281232046
 30
0.0
  0
VERTEX
  5
81A
  8
FISHER___PAYKEL
 62
     7
 10
518.3685495467091
 20
52.98526485142447
 30
0.0
  0
VERTEX
  5
81B
  8
FISHER___PAYKEL
 62
     7
 10
518.4371720268897
 20
53.11308625100722
 30
0.0
  0
VERTEX
  5
81C
  8
FISHER___PAYKEL
 62
     7
 10
518.5034232047834
 20
53.24300910500688
 30
0.0
  0
VERTEX
  5
81D
  8
FISHER___PAYKEL
 62
     7
 10
518.5672859625722
 20
53.37496550736162
 30
0.0
  0
VERTEX
  5
81E
  8
FISHER___PAYKEL
 62
     7
 10
518.6287431824378
 20
53.50888755200967
 30
0.0
  0
VERTEX
  5
81F
  8
FISHER___PAYKEL
 62
     7
 10
518.6877777465621
 20
53.6447073328892
 30
0.0
  0
VERTEX
  5
820
  8
FISHER___PAYKEL
 62
     7
 10
518.7443725371268
 20
53.78235694393841
 30
0.0
  0
VERTEX
  5
821
  8
FISHER___PAYKEL
 62
     7
 10
518.7985104363136
 20
53.92176847909548
 30
0.0
  0
VERTEX
  5
822
  8
FISHER___PAYKEL
 62
     7
 10
518.8501743263046
 20
54.06287403229862
 30
0.0
  0
VERTEX
  5
823
  8
FISHER___PAYKEL
 62
     7
 10
518.8993470892813
 20
54.20560569748601
 30
0.0
  0
VERTEX
  5
824
  8
FISHER___PAYKEL
 62
     7
 10
518.9460116074256
 20
54.34989556859584
 30
0.0
  0
VERTEX
  5
825
  8
FISHER___PAYKEL
 62
     7
 10
518.9901507629195
 20
54.49567573956631
 30
0.0
  0
VERTEX
  5
826
  8
FISHER___PAYKEL
 62
     7
 10
519.0317474379447
 20
54.6428783043356
 30
0.0
  0
VERTEX
  5
827
  8
FISHER___PAYKEL
 62
     7
 10
519.0707845146827
 20
54.79143535684192
 30
0.0
  0
VERTEX
  5
828
  8
FISHER___PAYKEL
 62
     7
 10
519.1072448753157
 20
54.94127899102345
 30
0.0
  0
VERTEX
  5
829
  8
FISHER___PAYKEL
 62
     7
 10
519.1411114020254
 20
55.09234130081837
 30
0.0
  0
VERTEX
  5
82A
  8
FISHER___PAYKEL
 62
     7
 10
519.1723669769935
 20
55.24455438016489
 30
0.0
  0
VERTEX
  5
82B
  8
FISHER___PAYKEL
 62
     7
 10
519.2009944824019
 20
55.39785032300119
 30
0.0
  0
VERTEX
  5
82C
  8
FISHER___PAYKEL
 62
     7
 10
519.2269768004323
 20
55.55216122326549
 30
0.0
  0
VERTEX
  5
82D
  8
FISHER___PAYKEL
 62
     7
 10
519.2502968132667
 20
55.70741917489593
 30
0.0
  0
VERTEX
  5
82E
  8
FISHER___PAYKEL
 62
     7
 10
519.2709374030867
 20
55.86355627183075
 30
0.0
  0
VERTEX
  5
82F
  8
FISHER___PAYKEL
 62
     7
 10
519.2888814520742
 20
56.02050460800811
 30
0.0
  0
VERTEX
  5
830
  8
FISHER___PAYKEL
 62
     7
 10
519.304111842411
 20
56.17819627736623
 30
0.0
  0
VERTEX
  5
831
  8
FISHER___PAYKEL
 62
     7
 10
519.3166114562789
 20
56.33656337384327
 30
0.0
  0
VERTEX
  5
832
  8
FISHER___PAYKEL
 62
     7
 10
519.3263631758598
 20
56.49553799137745
 30
0.0
  0
VERTEX
  5
833
  8
FISHER___PAYKEL
 62
     7
 10
519.3333498833351
 20
56.65505222390694
 30
0.0
  0
VERTEX
  5
834
  8
FISHER___PAYKEL
 62
     7
 10
519.3375544608871
 20
56.81503816536994
 30
0.0
  0
SEQEND
  5
835
  8
FISHER___PAYKEL
 62
     7
  0
POLYLINE
  5
836
  8
FISHER___PAYKEL
 62
     7
 66
     1
 10
0.0
 20
0.0
 30
0.0
 70
     1
  0
VERTEX
  5
837
  8
FISHER___PAYKEL
 62
     7
 10
508.0959320129198
 20
56.97542790970465
 30
0.0
  0
VERTEX
  5
838
  8
FISHER___PAYKEL
 62
     7
 10
508.0959320129198
 20
57.01776124303842
 30
0.0
  0
VERTEX
  5
839
  8
FISHER___PAYKEL
 62
     7
 10
508.0976980146211
 20
57.20870685806511
 30
0.0
  0
VERTEX
  5
83A
  8
FISHER___PAYKEL
 62
     7
 10
508.1029803553067
 20
57.39884317171545
 30
0.0
  0
VERTEX
  5
83B
  8
FISHER___PAYKEL
 62
     7
 10
508.1117555383486
 20
57.58809985559488
 30
0.0
  0
VERTEX
  5
83C
  8
FISHER___PAYKEL
 62
     7
 10
508.124000067119
 20
57.77640658130883
 30
0.0
  0
VERTEX
  5
83D
  8
FISHER___PAYKEL
 62
     7
 10
508.1396904449902
 20
57.96369302046271
 30
0.0
  0
VERTEX
  5
83E
  8
FISHER___PAYKEL
 62
     7
 10
508.1588031753344
 20
58.14988884466197
 30
0.0
  0
VERTEX
  5
83F
  8
FISHER___PAYKEL
 62
     7
 10
508.1813147615236
 20
58.33492372551203
 30
0.0
  0
VERTEX
  5
840
  8
FISHER___PAYKEL
 62
     7
 10
508.2072017069302
 20
58.51872733461832
 30
0.0
  0
VERTEX
  5
841
  8
FISHER___PAYKEL
 62
     7
 10
508.2364405149262
 20
58.70122934358626
 30
0.0
  0
VERTEX
  5
842
  8
FISHER___PAYKEL
 62
     7
 10
508.2690076888841
 20
58.88235942402128
 30
0.0
  0
VERTEX
  5
843
  8
FISHER___PAYKEL
 62
     7
 10
508.3048797321758
 20
59.06204724752882
 30
0.0
  0
VERTEX
  5
844
  8
FISHER___PAYKEL
 62
     7
 10
508.3440331481737
 20
59.24022248571429
 30
0.0
  0
VERTEX
  5
845
  8
FISHER___PAYKEL
 62
     7
 10
508.3864444402498
 20
59.41681481018313
 30
0.0
  0
VERTEX
  5
846
  8
FISHER___PAYKEL
 62
     7
 10
508.4320901117763
 20
59.59175389254077
 30
0.0
  0
VERTEX
  5
847
  8
FISHER___PAYKEL
 62
     7
 10
508.4809466661256
 20
59.76496940439263
 30
0.0
  0
VERTEX
  5
848
  8
FISHER___PAYKEL
 62
     7
 10
508.5329906066697
 20
59.93639101734414
 30
0.0
  0
VERTEX
  5
849
  8
FISHER___PAYKEL
 62
     7
 10
508.5881984367809
 20
60.10594840300072
 30
0.0
  0
VERTEX
  5
84A
  8
FISHER___PAYKEL
 62
     7
 10
508.6465466598313
 20
60.27357123296782
 30
0.0
  0
VERTEX
  5
84B
  8
FISHER___PAYKEL
 62
     7
 10
508.7080117791932
 20
60.43918917885085
 30
0.0
  0
VERTEX
  5
84C
  8
FISHER___PAYKEL
 62
     7
 10
508.7725702982387
 20
60.60273191225524
 30
0.0
  0
VERTEX
  5
84D
  8
FISHER___PAYKEL
 62
     7
 10
508.84019872034
 20
60.76412910478643
 30
0.0
  0
VERTEX
  5
84E
  8
FISHER___PAYKEL
 62
     7
 10
508.9108735488694
 20
60.92331042804983
 30
0.0
  0
VERTEX
  5
84F
  8
FISHER___PAYKEL
 62
     7
 10
508.9845712871989
 20
61.08020555365088
 30
0.0
  0
VERTEX
  5
850
  8
FISHER___PAYKEL
 62
     7
 10
509.0612684387009
 20
61.23474415319501
 30
0.0
  0
VERTEX
  5
851
  8
FISHER___PAYKEL
 62
     7
 10
509.1409415067475
 20
61.38685589828764
 30
0.0
  0
VERTEX
  5
852
  8
FISHER___PAYKEL
 62
     7
 10
509.2235669947108
 20
61.5364704605342
 30
0.0
  0
VERTEX
  5
853
  8
FISHER___PAYKEL
 62
     7
 10
509.3091214059632
 20
61.68351751154012
 30
0.0
  0
VERTEX
  5
854
  8
FISHER___PAYKEL
 62
     7
 10
509.3975812438767
 20
61.82792672291082
 30
0.0
  0
VERTEX
  5
855
  8
FISHER___PAYKEL
 62
     7
 10
509.4889230118235
 20
61.96962776625175
 30
0.0
  0
VERTEX
  5
856
  8
FISHER___PAYKEL
 62
     7
 10
509.583123213176
 20
62.10855031316831
 30
0.0
  0
VERTEX
  5
857
  8
FISHER___PAYKEL
 62
     7
 10
509.6801583513062
 20
62.24462403526594
 30
0.0
  0
VERTEX
  5
858
  8
FISHER___PAYKEL
 62
     7
 10
509.7800049295863
 20
62.37777860415008
 30
0.0
  0
VERTEX
  5
859
  8
FISHER___PAYKEL
 62
     7
 10
509.8826394513886
 20
62.50794369142614
 30
0.0
  0
VERTEX
  5
85A
  8
FISHER___PAYKEL
 62
     7
 10
509.9880384200851
 20
62.63504896869956
 30
0.0
  0
VERTEX
  5
85B
  8
FISHER___PAYKEL
 62
     7
 10
510.0961783390483
 20
62.75902410757575
 30
0.0
  0
VERTEX
  5
85C
  8
FISHER___PAYKEL
 62
     7
 10
510.2070357116501
 20
62.87979877966017
 30
0.0
  0
VERTEX
  5
85D
  8
FISHER___PAYKEL
 62
     7
 10
510.3205870412628
 20
62.99730265655822
 30
0.0
  0
VERTEX
  5
85E
  8
FISHER___PAYKEL
 62
     7
 10
510.4368088312586
 20
63.11146540987534
 30
0.0
  0
VERTEX
  5
85F
  8
FISHER___PAYKEL
 62
     7
 10
510.5556775850097
 20
63.22221671121694
 30
0.0
  0
VERTEX
  5
860
  8
FISHER___PAYKEL
 62
     7
 10
510.6771698058884
 20
63.32948623218849
 30
0.0
  0
VERTEX
  5
861
  8
FISHER___PAYKEL
 62
     7
 10
510.8012619972666
 20
63.43320364439538
 30
0.0
  0
VERTEX
  5
862
  8
FISHER___PAYKEL
 62
     7
 10
510.9279306625168
 20
63.53329861944304
 30
0.0
  0
VERTEX
  5
863
  8
FISHER___PAYKEL
 62
     7
 10
511.057152305011
 20
63.62970082893691
 30
0.0
  0
VERTEX
  5
864
  8
FISHER___PAYKEL
 62
     7
 10
511.1889034281214
 20
63.72233994448242
 30
0.0
  0
VERTEX
  5
865
  8
FISHER___PAYKEL
 62
     7
 10
511.3231605352204
 20
63.81114563768499
 30
0.0
  0
VERTEX
  5
866
  8
FISHER___PAYKEL
 62
     7
 10
511.4599001296799
 20
63.89604758015005
 30
0.0
  0
VERTEX
  5
867
  8
FISHER___PAYKEL
 62
     7
 10
511.5990987148723
 20
63.97697544348304
 30
0.0
  0
VERTEX
  5
868
  8
FISHER___PAYKEL
 62
     7
 10
511.7407327941696
 20
64.05385889928937
 30
0.0
  0
VERTEX
  5
869
  8
FISHER___PAYKEL
 62
     7
 10
511.8847788709442
 20
64.12662761917446
 30
0.0
  0
VERTEX
  5
86A
  8
FISHER___PAYKEL
 62
     7
 10
512.0312134485682
 20
64.19521127474377
 30
0.0
  0
VERTEX
  5
86B
  8
FISHER___PAYKEL
 62
     7
 10
512.1800130304139
 20
64.25953953760272
 30
0.0
  0
VERTEX
  5
86C
  8
FISHER___PAYKEL
 62
     7
 10
512.3311541198532
 20
64.31954207935671
 30
0.0
  0
VERTEX
  5
86D
  8
FISHER___PAYKEL
 62
     7
 10
512.4846132202586
 20
64.37514857161119
 30
0.0
  0
VERTEX
  5
86E
  8
FISHER___PAYKEL
 62
     7
 10
512.6403668350022
 20
64.4262886859716
 30
0.0
  0
VERTEX
  5
86F
  8
FISHER___PAYKEL
 62
     7
 10
512.7983914674561
 20
64.47289209404335
 30
0.0
  0
VERTEX
  5
870
  8
FISHER___PAYKEL
 62
     7
 10
512.9586636209926
 20
64.51488846743186
 30
0.0
  0
VERTEX
  5
871
  8
FISHER___PAYKEL
 62
     7
 10
513.1211597989839
 20
64.55220747774257
 30
0.0
  0
VERTEX
  5
872
  8
FISHER___PAYKEL
 62
     7
 10
513.285856504802
 20
64.5847787965809
 30
0.0
  0
VERTEX
  5
873
  8
FISHER___PAYKEL
 62
     7
 10
513.4527302418194
 20
64.6125320955523
 30
0.0
  0
VERTEX
  5
874
  8
FISHER___PAYKEL
 62
     7
 10
513.6217575134079
 20
64.63539704626218
 30
0.0
  0
VERTEX
  5
875
  8
FISHER___PAYKEL
 62
     7
 10
513.7929148229401
 20
64.65330332031598
 30
0.0
  0
VERTEX
  5
876
  8
FISHER___PAYKEL
 62
     7
 10
513.966178673788
 20
64.66618058931911
 30
0.0
  0
VERTEX
  5
877
  8
FISHER___PAYKEL
 62
     7
 10
514.1415255693238
 20
64.67395852487701
 30
0.0
  0
VERTEX
  5
878
  8
FISHER___PAYKEL
 62
     7
 10
514.3189320129197
 20
64.6765667985951
 30
0.0
  0
VERTEX
  5
879
  8
FISHER___PAYKEL
 62
     7
 10
514.496142422508
 20
64.67398920775868
 30
0.0
  0
VERTEX
  5
87A
  8
FISHER___PAYKEL
 62
     7
 10
514.6712332909281
 20
64.666302028935
 30
0.0
  0
VERTEX
  5
87B
  8
FISHER___PAYKEL
 62
     7
 10
514.8441831401626
 20
64.6535736526524
 30
0.0
  0
VERTEX
  5
87C
  8
FISHER___PAYKEL
 62
     7
 10
515.0149704921947
 20
64.63587246943928
 30
0.0
  0
VERTEX
  5
87D
  8
FISHER___PAYKEL
 62
     7
 10
515.1835738690071
 20
64.61326686982397
 30
0.0
  0
VERTEX
  5
87E
  8
FISHER___PAYKEL
 62
     7
 10
515.3499717925826
 20
64.58582524433484
 30
0.0
  0
VERTEX
  5
87F
  8
FISHER___PAYKEL
 62
     7
 10
515.5141427849039
 20
64.55361598350024
 30
0.0
  0
VERTEX
  5
880
  8
FISHER___PAYKEL
 62
     7
 10
515.6760653679542
 20
64.51670747784854
 30
0.0
  0
VERTEX
  5
881
  8
FISHER___PAYKEL
 62
     7
 10
515.8357180637161
 20
64.47516811790811
 30
0.0
  0
VERTEX
  5
882
  8
FISHER___PAYKEL
 62
     7
 10
515.9930793941721
 20
64.42906629420729
 30
0.0
  0
VERTEX
  5
883
  8
FISHER___PAYKEL
 62
     7
 10
516.1481278813055
 20
64.37847039727447
 30
0.0
  0
VERTEX
  5
884
  8
FISHER___PAYKEL
 62
     7
 10
516.3008420470991
 20
64.323448817638
 30
0.0
  0
VERTEX
  5
885
  8
FISHER___PAYKEL
 62
     7
 10
516.4512004135355
 20
64.26406994582624
 30
0.0
  0
VERTEX
  5
886
  8
FISHER___PAYKEL
 62
     7
 10
516.5991815025977
 20
64.20040217236752
 30
0.0
  0
VERTEX
  5
887
  8
FISHER___PAYKEL
 62
     7
 10
516.7447638362684
 20
64.13251388779022
 30
0.0
  0
VERTEX
  5
888
  8
FISHER___PAYKEL
 62
     7
 10
516.8879259365306
 20
64.06047348262275
 30
0.0
  0
VERTEX
  5
889
  8
FISHER___PAYKEL
 62
     7
 10
517.0286463253669
 20
63.98434934739341
 30
0.0
  0
VERTEX
  5
88A
  8
FISHER___PAYKEL
 62
     7
 10
517.1669035247603
 20
63.90420987263059
 30
0.0
  0
VERTEX
  5
88B
  8
FISHER___PAYKEL
 62
     7
 10
517.3026760566936
 20
63.82012344886263
 30
0.0
  0
VERTEX
  5
88C
  8
FISHER___PAYKEL
 62
     7
 10
517.4359424431495
 20
63.7321584666179
 30
0.0
  0
VERTEX
  5
88D
  8
FISHER___PAYKEL
 62
     7
 10
517.5666812061111
 20
63.64038331642477
 30
0.0
  0
VERTEX
  5
88E
  8
FISHER___PAYKEL
 62
     7
 10
517.6948708675609
 20
63.54486638881161
 30
0.0
  0
VERTEX
  5
88F
  8
FISHER___PAYKEL
 62
     7
 10
517.820489949482
 20
63.44567607430675
 30
0.0
  0
VERTEX
  5
890
  8
FISHER___PAYKEL
 62
     7
 10
517.943516973857
 20
63.34288076343857
 30
0.0
  0
VERTEX
  5
891
  8
FISHER___PAYKEL
 62
     7
 10
518.0639304626688
 20
63.23654884673543
 30
0.0
  0
VERTEX
  5
892
  8
FISHER___PAYKEL
 62
     7
 10
518.1817089379005
 20
63.12674871472569
 30
0.0
  0
VERTEX
  5
893
  8
FISHER___PAYKEL
 62
     7
 10
518.2968309215346
 20
63.01354875793771
 30
0.0
  0
VERTEX
  5
894
  8
FISHER___PAYKEL
 62
     7
 10
518.4092749355541
 20
62.89701736689986
 30
0.0
  0
VERTEX
  5
895
  8
FISHER___PAYKEL
 62
     7
 10
518.5190195019417
 20
62.77722293214048
 30
0.0
  0
VERTEX
  5
896
  8
FISHER___PAYKEL
 62
     7
 10
518.6260431426803
 20
62.65423384418794
 30
0.0
  0
VERTEX
  5
897
  8
FISHER___PAYKEL
 62
     7
 10
518.7303243797527
 20
62.52811849357062
 30
0.0
  0
VERTEX
  5
898
  8
FISHER___PAYKEL
 62
     7
 10
518.8318417351418
 20
62.39894527081685
 30
0.0
  0
VERTEX
  5
899
  8
FISHER___PAYKEL
 62
     7
 10
518.9305737308304
 20
62.26678256645501
 30
0.0
  0
VERTEX
  5
89A
  8
FISHER___PAYKEL
 62
     7
 10
519.0264988888011
 20
62.13169877101347
 30
0.0
  0
VERTEX
  5
89B
  8
FISHER___PAYKEL
 62
     7
 10
519.1195957310372
 20
61.99376227502057
 30
0.0
  0
VERTEX
  5
89C
  8
FISHER___PAYKEL
 62
     7
 10
519.2098427795212
 20
61.85304146900468
 30
0.0
  0
VERTEX
  5
89D
  8
FISHER___PAYKEL
 62
     7
 10
519.297218556236
 20
61.70960474349415
 30
0.0
  0
VERTEX
  5
89E
  8
FISHER___PAYKEL
 62
     7
 10
519.3817015831644
 20
61.56352048901736
 30
0.0
  0
VERTEX
  5
89F
  8
FISHER___PAYKEL
 62
     7
 10
519.4632703822891
 20
61.41485709610267
 30
0.0
  0
VERTEX
  5
8A0
  8
FISHER___PAYKEL
 62
     7
 10
519.5419034755932
 20
61.26368295527843
 30
0.0
  0
VERTEX
  5
8A1
  8
FISHER___PAYKEL
 62
     7
 10
519.6175793850595
 20
61.110066457073
 30
0.0
  0
VERTEX
  5
8A2
  8
FISHER___PAYKEL
 62
     7
 10
519.6902766326707
 20
60.95407599201474
 30
0.0
  0
VERTEX
  5
8A3
  8
FISHER___PAYKEL
 62
     7
 10
519.7599737404096
 20
60.79577995063202
 30
0.0
  0
VERTEX
  5
8A4
  8
FISHER___PAYKEL
 62
     7
 10
519.8266492302591
 20
60.63524672345321
 30
0.0
  0
VERTEX
  5
8A5
  8
FISHER___PAYKEL
 62
     7
 10
519.8902816242021
 20
60.47254470100664
 30
0.0
  0
VERTEX
  5
8A6
  8
FISHER___PAYKEL
 62
     7
 10
519.9508494442213
 20
60.30774227382071
 30
0.0
  0
VERTEX
  5
8A7
  8
FISHER___PAYKEL
 62
     7
 10
520.0083312122996
 20
60.14090783242374
 30
0.0
  0
VERTEX
  5
8A8
  8
FISHER___PAYKEL
 62
     7
 10
520.0627054504198
 20
59.97210976734412
 30
0.0
  0
VERTEX
  5
8A9
  8
FISHER___PAYKEL
 62
     7
 10
520.1139506805647
 20
59.8014164691102
 30
0.0
  0
VERTEX
  5
8AA
  8
FISHER___PAYKEL
 62
     7
 10
520.1620454247172
 20
59.62889632825035
 30
0.0
  0
VERTEX
  5
8AB
  8
FISHER___PAYKEL
 62
     7
 10
520.2069682048602
 20
59.45461773529293
 30
0.0
  0
VERTEX
  5
8AC
  8
FISHER___PAYKEL
 62
     7
 10
520.2486975429763
 20
59.27864908076629
 30
0.0
  0
VERTEX
  5
8AD
  8
FISHER___PAYKEL
 62
     7
 10
520.2872119610486
 20
59.10105875519879
 30
0.0
  0
VERTEX
  5
8AE
  8
FISHER___PAYKEL
 62
     7
 10
520.3224899810596
 20
58.9219151491188
 30
0.0
  0
VERTEX
  5
8AF
  8
FISHER___PAYKEL
 62
     7
 10
520.3545101249924
 20
58.74128665305469
 30
0.0
  0
VERTEX
  5
8B0
  8
FISHER___PAYKEL
 62
     7
 10
520.3832509148297
 20
58.5592416575348
 30
0.0
  0
VERTEX
  5
8B1
  8
FISHER___PAYKEL
 62
     7
 10
520.4086908725544
 20
58.37584855308751
 30
0.0
  0
VERTEX
  5
8B2
  8
FISHER___PAYKEL
 62
     7
 10
520.4308085201492
 20
58.19117573024116
 30
0.0
  0
VERTEX
  5
8B3
  8
FISHER___PAYKEL
 62
     7
 10
520.4495823795971
 20
58.00529157952413
 30
0.0
  0
VERTEX
  5
8B4
  8
FISHER___PAYKEL
 62
     7
 10
520.4649909728809
 20
57.81826449146476
 30
0.0
  0
VERTEX
  5
8B5
  8
FISHER___PAYKEL
 62
     7
 10
520.4770128219833
 20
57.63016285659144
 30
0.0
  0
VERTEX
  5
8B6
  8
FISHER___PAYKEL
 62
     7
 10
520.4856264488873
 20
57.44105506543251
 30
0.0
  0
VERTEX
  5
8B7
  8
FISHER___PAYKEL
 62
     7
 10
520.4908103755755
 20
57.25100950851633
 30
0.0
  0
VERTEX
  5
8B8
  8
FISHER___PAYKEL
 62
     7
 10
520.492543124031
 20
57.06009457637128
 30
0.0
  0
VERTEX
  5
8B9
  8
FISHER___PAYKEL
 62
     7
 10
520.492543124031
 20
57.01776124303842
 30
0.0
  0
VERTEX
  5
8BA
  8
FISHER___PAYKEL
 62
     7
 10
520.4907796792365
 20
56.82665539069941
 30
0.0
  0
VERTEX
  5
8BB
  8
FISHER___PAYKEL
 62
     7
 10
520.4855049016122
 20
56.63636893278994
 30
0.0
  0
VERTEX
  5
8BC
  8
FISHER___PAYKEL
 62
     7
 10
520.476742126297
 20
56.44697195547128
 30
0.0
  0
VERTEX
  5
8BD
  8
FISHER___PAYKEL
 62
     7
 10
520.46451468843
 20
56.25853454490473
 30
0.0
  0
VERTEX
  5
8BE
  8
FISHER___PAYKEL
 62
     7
 10
520.4488459231501
 20
56.07112678725161
 30
0.0
  0
VERTEX
  5
8BF
  8
FISHER___PAYKEL
 62
     7
 10
520.4297591655961
 20
55.88481876867319
 30
0.0
  0
VERTEX
  5
8C0
  8
FISHER___PAYKEL
 62
     7
 10
520.407277750907
 20
55.69968057533077
 30
0.0
  0
VERTEX
  5
8C1
  8
FISHER___PAYKEL
 62
     7
 10
520.381425014222
 20
55.51578229338566
 30
0.0
  0
VERTEX
  5
8C2
  8
FISHER___PAYKEL
 62
     7
 10
520.3522242906799
 20
55.33319400899913
 30
0.0
  0
VERTEX
  5
8C3
  8
FISHER___PAYKEL
 62
     7
 10
520.3196989154197
 20
55.1519858083325
 30
0.0
  0
VERTEX
  5
8C4
  8
FISHER___PAYKEL
 62
     7
 10
520.2838722235803
 20
54.97222777754705
 30
0.0
  0
VERTEX
  5
8C5
  8
FISHER___PAYKEL
 62
     7
 10
520.2447675503006
 20
54.79399000280409
 30
0.0
  0
VERTEX
  5
8C6
  8
FISHER___PAYKEL
 62
     7
 10
520.2024082307196
 20
54.6173425702649
 30
0.0
  0
VERTEX
  5
8C7
  8
FISHER___PAYKEL
 62
     7
 10
520.1568175999764
 20
54.44235556609078
 30
0.0
  0
VERTEX
  5
8C8
  8
FISHER___PAYKEL
 62
     7
 10
520.1080189932097
 20
54.26909907644303
 30
0.0
  0
VERTEX
  5
8C9
  8
FISHER___PAYKEL
 62
     7
 10
520.0560357455588
 20
54.09764318748294
 30
0.0
  0
VERTEX
  5
8CA
  8
FISHER___PAYKEL
 62
     7
 10
520.0008911921623
 20
53.92805798537182
 30
0.0
  0
VERTEX
  5
8CB
  8
FISHER___PAYKEL
 62
     7
 10
519.9426086681593
 20
53.76041355627095
 30
0.0
  0
VERTEX
  5
8CC
  8
FISHER___PAYKEL
 62
     7
 10
519.8812115086889
 20
53.59477998634162
 30
0.0
  0
VERTEX
  5
8CD
  8
FISHER___PAYKEL
 62
     7
 10
519.8167230488898
 20
53.43122736174515
 30
0.0
  0
VERTEX
  5
8CE
  8
FISHER___PAYKEL
 62
     7
 10
519.7491666239011
 20
53.26982576864282
 30
0.0
  0
VERTEX
  5
8CF
  8
FISHER___PAYKEL
 62
     7
 10
519.6785655688619
 20
53.11064529319592
 30
0.0
  0
VERTEX
  5
8D0
  8
FISHER___PAYKEL
 62
     7
 10
519.6049432189109
 20
52.95375602156575
 30
0.0
  0
VERTEX
  5
8D1
  8
FISHER___PAYKEL
 62
     7
 10
519.5283229091872
 20
52.79922803991361
 30
0.0
  0
VERTEX
  5
8D2
  8
FISHER___PAYKEL
 62
     7
 10
519.4487279748296
 20
52.64713143440079
 30
0.0
  0
VERTEX
  5
8D3
  8
FISHER___PAYKEL
 62
     7
 10
519.3661817509771
 20
52.4975362911886
 30
0.0
  0
VERTEX
  5
8D4
  8
FISHER___PAYKEL
 62
     7
 10
519.280707572769
 20
52.35051269643832
 30
0.0
  0
VERTEX
  5
8D5
  8
FISHER___PAYKEL
 62
     7
 10
519.1923287753439
 20
52.20613073631124
 30
0.0
  0
VERTEX
  5
8D6
  8
FISHER___PAYKEL
 62
     7
 10
519.1010686938407
 20
52.06446049696868
 30
0.0
  0
VERTEX
  5
8D7
  8
FISHER___PAYKEL
 62
     7
 10
519.0069506633986
 20
51.92557206457191
 30
0.0
  0
VERTEX
  5
8D8
  8
FISHER___PAYKEL
 62
     7
 10
518.9099980191564
 20
51.78953552528224
 30
0.0
  0
VERTEX
  5
8D9
  8
FISHER___PAYKEL
 62
     7
 10
518.8102340962531
 20
51.65642096526096
 30
0.0
  0
VERTEX
  5
8DA
  8
FISHER___PAYKEL
 62
     7
 10
518.7076822298277
 20
51.52629847066937
 30
0.0
  0
VERTEX
  5
8DB
  8
FISHER___PAYKEL
 62
     7
 10
518.602365755019
 20
51.39923812766877
 30
0.0
  0
VERTEX
  5
8DC
  8
FISHER___PAYKEL
 62
     7
 10
518.4943080069663
 20
51.27531002242044
 30
0.0
  0
VERTEX
  5
8DD
  8
FISHER___PAYKEL
 62
     7
 10
518.3835323208082
 20
51.15458424108569
 30
0.0
  0
VERTEX
  5
8DE
  8
FISHER___PAYKEL
 62
     7
 10
518.2700620316837
 20
51.0371308698258
 30
0.0
  0
VERTEX
  5
8DF
  8
FISHER___PAYKEL
 62
     7
 10
518.153920474732
 20
50.92301999480208
 30
0.0
  0
VERTEX
  5
8E0
  8
FISHER___PAYKEL
 62
     7
 10
518.0351309850919
 20
50.81232170217582
 30
0.0
  0
VERTEX
  5
8E1
  8
FISHER___PAYKEL
 62
     7
 10
517.9137168979024
 20
50.70510607810832
 30
0.0
  0
VERTEX
  5
8E2
  8
FISHER___PAYKEL
 62
     7
 10
517.7897015483024
 20
50.60144320876087
 30
0.0
  0
VERTEX
  5
8E3
  8
FISHER___PAYKEL
 62
     7
 10
517.6631082714309
 20
50.50140318029477
 30
0.0
  0
VERTEX
  5
8E4
  8
FISHER___PAYKEL
 62
     7
 10
517.5339604024268
 20
50.40505607887131
 30
0.0
  0
VERTEX
  5
8E5
  8
FISHER___PAYKEL
 62
     7
 10
517.402281276429
 20
50.31247199065179
 30
0.0
  0
VERTEX
  5
8E6
  8
FISHER___PAYKEL
 62
     7
 10
517.2680942285765
 20
50.2237210017975
 30
0.0
  0
VERTEX
  5
8E7
  8
FISHER___PAYKEL
 62
     7
 10
517.1314225940084
 20
50.13887319846974
 30
0.0
  0
VERTEX
  5
8E8
  8
FISHER___PAYKEL
 62
     7
 10
516.9922897078636
 20
50.0579986668298
 30
0.0
  0
VERTEX
  5
8E9
  8
FISHER___PAYKEL
 62
     7
 10
516.8507189052809
 20
49.981167493039
 30
0.0
  0
VERTEX
  5
8EA
  8
FISHER___PAYKEL
 62
     7
 10
516.7067335213994
 20
49.9084497632586
 30
0.0
  0
VERTEX
  5
8EB
  8
FISHER___PAYKEL
 62
     7
 10
516.5603568913581
 20
49.83991556364992
 30
0.0
  0
VERTEX
  5
8EC
  8
FISHER___PAYKEL
 62
     7
 10
516.4116123502959
 20
49.77563498037424
 30
0.0
  0
VERTEX
  5
8ED
  8
FISHER___PAYKEL
 62
     7
 10
516.2605232333516
 20
49.71567809959286
 30
0.0
  0
VERTEX
  5
8EE
  8
FISHER___PAYKEL
 62
     7
 10
516.1071128756644
 20
49.66011500746708
 30
0.0
  0
VERTEX
  5
8EF
  8
FISHER___PAYKEL
 62
     7
 10
515.9514046123732
 20
49.6090157901582
 30
0.0
  0
VERTEX
  5
8F0
  8
FISHER___PAYKEL
 62
     7
 10
515.7934217786169
 20
49.56245053382752
 30
0.0
  0
VERTEX
  5
8F1
  8
FISHER___PAYKEL
 62
     7
 10
515.6331877095345
 20
49.5204893246363
 30
0.0
  0
VERTEX
  5
8F2
  8
FISHER___PAYKEL
 62
     7
 10
515.4707257402649
 20
49.48320224874587
 30
0.0
  0
VERTEX
  5
8F3
  8
FISHER___PAYKEL
 62
     7
 10
515.3060592059471
 20
49.45065939231753
 30
0.0
  0
VERTEX
  5
8F4
  8
FISHER___PAYKEL
 62
     7
 10
515.1392114417199
 20
49.42293084151255
 30
0.0
  0
VERTEX
  5
8F5
  8
FISHER___PAYKEL
 62
     7
 10
514.9702057827226
 20
49.40008668249223
 30
0.0
  0
VERTEX
  5
8F6
  8
FISHER___PAYKEL
 62
     7
 10
514.7990655640938
 20
49.38219700141788
 30
0.0
  0
VERTEX
  5
8F7
  8
FISHER___PAYKEL
 62
     7
 10
514.6258141209728
 20
49.36933188445079
 30
0.0
  0
VERTEX
  5
8F8
  8
FISHER___PAYKEL
 62
     7
 10
514.4504747884981
 20
49.36156141775225
 30
0.0
  0
VERTEX
  5
8F9
  8
FISHER___PAYKEL
 62
     7
 10
514.273070901809
 20
49.35895568748356
 30
0.0
  0
VERTEX
  5
8FA
  8
FISHER___PAYKEL
 62
     7
 10
514.0958579353138
 20
49.36153073487058
 30
0.0
  0
VERTEX
  5
8FB
  8
FISHER___PAYKEL
 62
     7
 10
513.9207595038325
 20
49.36921044483491
 30
0.0
  0
VERTEX
  5
8FC
  8
FISHER___PAYKEL
 62
     7
 10
513.7477972468712
 20
49.38192666908146
 30
0.0
  0
VERTEX
  5
8FD
  8
FISHER___PAYKEL
 62
     7
 10
513.5769928039356
 20
49.39961125931515
 30
0.0
  0
VERTEX
  5
8FE
  8
FISHER___PAYKEL
 62
     7
 10
513.408367814532
 20
49.4221960672409
 30
0.0
  0
VERTEX
  5
8FF
  8
FISHER___PAYKEL
 62
     7
 10
513.2419439181662
 20
49.44961294456363
 30
0.0
  0
VERTEX
  5
900
  8
FISHER___PAYKEL
 62
     7
 10
513.0777427543444
 20
49.48179374298823
 30
0.0
  0
VERTEX
  5
901
  8
FISHER___PAYKEL
 62
     7
 10
512.9157859625726
 20
49.51867031421965
 30
0.0
  0
VERTEX
  5
902
  8
FISHER___PAYKEL
 62
     7
 10
512.7560951823568
 20
49.56017450996279
 30
0.0
  0
VERTEX
  5
903
  8
FISHER___PAYKEL
 62
     7
 10
512.598692053203
 20
49.60623818192256
 30
0.0
  0
VERTEX
  5
904
  8
FISHER___PAYKEL
 62
     7
 10
512.4435982146172
 20
49.65679318180387
 30
0.0
  0
VERTEX
  5
905
  8
FISHER___PAYKEL
 62
     7
 10
512.2908353061055
 20
49.71177136131165
 30
0.0
  0
VERTEX
  5
906
  8
FISHER___PAYKEL
 62
     7
 10
512.1404249671739
 20
49.7711045721508
 30
0.0
  0
VERTEX
  5
907
  8
FISHER___PAYKEL
 62
     7
 10
511.9923888373283
 20
49.83472466602626
 30
0.0
  0
VERTEX
  5
908
  8
FISHER___PAYKEL
 62
     7
 10
511.8467485560749
 20
49.90256349464293
 30
0.0
  0
VERTEX
  5
909
  8
FISHER___PAYKEL
 62
     7
 10
511.7035257629196
 20
49.97455290970572
 30
0.0
  0
VERTEX
  5
90A
  8
FISHER___PAYKEL
 62
     7
 10
511.5627420973685
 20
50.05062476291955
 30
0.0
  0
VERTEX
  5
90B
  8
FISHER___PAYKEL
 62
     7
 10
511.4244191989276
 20
50.13071090598935
 30
0.0
  0
VERTEX
  5
90C
  8
FISHER___PAYKEL
 62
     7
 10
511.2885787071028
 20
50.21474319062
 30
0.0
  0
VERTEX
  5
90D
  8
FISHER___PAYKEL
 62
     7
 10
511.1552422614004
 20
50.30265346851645
 30
0.0
  0
VERTEX
  5
90E
  8
FISHER___PAYKEL
 62
     7
 10
511.0244315013263
 20
50.3943735913836
 30
0.0
  0
VERTEX
  5
90F
  8
FISHER___PAYKEL
 62
     7
 10
510.8961680663863
 20
50.48983541092637
 30
0.0
  0
VERTEX
  5
910
  8
FISHER___PAYKEL
 62
     7
 10
510.7704735960867
 20
50.58897077884967
 30
0.0
  0
VERTEX
  5
911
  8
FISHER___PAYKEL
 62
     7
 10
510.6473697299334
 20
50.69171154685842
 30
0.0
  0
VERTEX
  5
912
  8
FISHER___PAYKEL
 62
     7
 10
510.5268781074325
 20
50.79798956665753
 30
0.0
  0
VERTEX
  5
913
  8
FISHER___PAYKEL
 62
     7
 10
510.4090203680898
 20
50.90773668995193
 30
0.0
  0
VERTEX
  5
914
  8
FISHER___PAYKEL
 62
     7
 10
510.2938181514116
 20
51.02088476844652
 30
0.0
  0
VERTEX
  5
915
  8
FISHER___PAYKEL
 62
     7
 10
510.1812930969039
 20
51.13736565384622
 30
0.0
  0
VERTEX
  5
916
  8
FISHER___PAYKEL
 62
     7
 10
510.0714668440726
 20
51.25711119785594
 30
0.0
  0
VERTEX
  5
917
  8
FISHER___PAYKEL
 62
     7
 10
509.9643610324237
 20
51.3800532521806
 30
0.0
  0
VERTEX
  5
918
  8
FISHER___PAYKEL
 62
     7
 10
509.8599973014632
 20
51.50612366852512
 30
0.0
  0
VERTEX
  5
919
  8
FISHER___PAYKEL
 62
     7
 10
509.7583972906973
 20
51.63525429859442
 30
0.0
  0
VERTEX
  5
91A
  8
FISHER___PAYKEL
 62
     7
 10
509.6595826396319
 20
51.7673769940934
 30
0.0
  0
VERTEX
  5
91B
  8
FISHER___PAYKEL
 62
     7
 10
509.5635749877731
 20
51.90242360672698
 30
0.0
  0
VERTEX
  5
91C
  8
FISHER___PAYKEL
 62
     7
 10
509.4703959746268
 20
52.04032598820007
 30
0.0
  0
VERTEX
  5
91D
  8
FISHER___PAYKEL
 62
     7
 10
509.3800672396991
 20
52.18101599021761
 30
0.0
  0
VERTEX
  5
91E
  8
FISHER___PAYKEL
 62
     7
 10
509.292610422496
 20
52.32442546448449
 30
0.0
  0
VERTEX
  5
91F
  8
FISHER___PAYKEL
 62
     7
 10
509.2080471625235
 20
52.47048626270563
 30
0.0
  0
VERTEX
  5
920
  8
FISHER___PAYKEL
 62
     7
 10
509.1263990992877
 20
52.61913023658595
 30
0.0
  0
VERTEX
  5
921
  8
FISHER___PAYKEL
 62
     7
 10
509.0476878722946
 20
52.77028923783038
 30
0.0
  0
VERTEX
  5
922
  8
FISHER___PAYKEL
 62
     7
 10
508.9719351210501
 20
52.92389511814381
 30
0.0
  0
VERTEX
  5
923
  8
FISHER___PAYKEL
 62
     7
 10
508.8991624850605
 20
53.07987972923116
 30
0.0
  0
VERTEX
  5
924
  8
FISHER___PAYKEL
 62
     7
 10
508.8293916038315
 20
53.23817492279735
 30
0.0
  0
VERTEX
  5
925
  8
FISHER___PAYKEL
 62
     7
 10
508.7626441168693
 20
53.3987125505473
 30
0.0
  0
VERTEX
  5
926
  8
FISHER___PAYKEL
 62
     7
 10
508.6989416636799
 20
53.56142446418592
 30
0.0
  0
VERTEX
  5
927
  8
FISHER___PAYKEL
 62
     7
 10
508.6383058837693
 20
53.72624251541812
 30
0.0
  0
VERTEX
  5
928
  8
FISHER___PAYKEL
 62
     7
 10
508.5807584166435
 20
53.89309855594883
 30
0.0
  0
VERTEX
  5
929
  8
FISHER___PAYKEL
 62
     7
 10
508.5263209018086
 20
54.06192443748296
 30
0.0
  0
VERTEX
  5
92A
  8
FISHER___PAYKEL
 62
     7
 10
508.4750149787705
 20
54.23265201172541
 30
0.0
  0
VERTEX
  5
92B
  8
FISHER___PAYKEL
 62
     7
 10
508.4268622870353
 20
54.40521313038112
 30
0.0
  0
VERTEX
  5
92C
  8
FISHER___PAYKEL
 62
     7
 10
508.3818844661091
 20
54.57953964515499
 30
0.0
  0
VERTEX
  5
92D
  8
FISHER___PAYKEL
 62
     7
 10
508.3401031554978
 20
54.75556340775194
 30
0.0
  0
VERTEX
  5
92E
  8
FISHER___PAYKEL
 62
     7
 10
508.3015399947075
 20
54.93321626987688
 30
0.0
  0
VERTEX
  5
92F
  8
FISHER___PAYKEL
 62
     7
 10
508.2662166232441
 20
55.11243008323473
 30
0.0
  0
VERTEX
  5
930
  8
FISHER___PAYKEL
 62
     7
 10
508.2341546806138
 20
55.29313669953041
 30
0.0
  0
VERTEX
  5
931
  8
FISHER___PAYKEL
 62
     7
 10
508.2053758063225
 20
55.47526797046883
 30
0.0
  0
VERTEX
  5
932
  8
FISHER___PAYKEL
 62
     7
 10
508.1799016398763
 20
55.6587557477549
 30
0.0
  0
VERTEX
  5
933
  8
FISHER___PAYKEL
 62
     7
 10
508.1577538207811
 20
55.84353188309355
 30
0.0
  0
VERTEX
  5
934
  8
FISHER___PAYKEL
 62
     7
 10
508.1389539885431
 20
56.02952822818968
 30
0.0
  0
VERTEX
  5
935
  8
FISHER___PAYKEL
 62
     7
 10
508.123523782668
 20
56.2166766347482
 30
0.0
  0
VERTEX
  5
936
  8
FISHER___PAYKEL
 62
     7
 10
508.1114848426622
 20
56.40490895447405
 30
0.0
  0
VERTEX
  5
937
  8
FISHER___PAYKEL
 62
     7
 10
508.1028588080316
 20
56.59415703907213
 30
0.0
  0
VERTEX
  5
938
  8
FISHER___PAYKEL
 62
     7
 10
508.097667318282
 20
56.78435274024736
 30
0.0
  0
SEQEND
  5
939
  8
FISHER___PAYKEL
 62
     7
  0
POLYLINE
  5
93A
  8
FISHER___PAYKEL
 62
     7
 66
     1
 10
0.0
 20
0.0
 30
0.0
 70
     1
  0
VERTEX
  5
93B
  8
FISHER___PAYKEL
 62
     7
 10
495.1613347906971
 20
50.43845568748338
 30
0.0
  0
VERTEX
  5
93C
  8
FISHER___PAYKEL
 62
     7
 10
500.7387514573641
 20
55.43026124303879
 30
0.0
  0
VERTEX
  5
93D
  8
FISHER___PAYKEL
 62
     7
 10
501.5860382412182
 20
56.22148943314318
 30
0.0
  0
VERTEX
  5
93E
  8
FISHER___PAYKEL
 62
     7
 10
501.9562120286531
 20
56.58819056432816
 30
0.0
  0
VERTEX
  5
93F
  8
FISHER___PAYKEL
 62
     7
 10
502.2921863531974
 20
56.93805551387248
 30
0.0
  0
VERTEX
  5
940
  8
FISHER___PAYKEL
 62
     7
 10
502.5950464199292
 20
57.27291362747929
 30
0.0
  0
VERTEX
  5
941
  8
FISHER___PAYKEL
 62
     7
 10
502.7343977332023
 20
57.43528679133835
 30
0.0
  0
VERTEX
  5
942
  8
FISHER___PAYKEL
 62
     7
 10
502.8658774339266
 20
57.59459425085171
 30
0.0
  0
VERTEX
  5
943
  8
FISHER___PAYKEL
 62
     7
 10
502.9896211727368
 20
57.75106467423224
 30
0.0
  0
VERTEX
  5
944
  8
FISHER___PAYKEL
 62
     7
 10
503.1057646002677
 20
57.90492672969286
 30
0.0
  0
VERTEX
  5
945
  8
FISHER___PAYKEL
 62
     7
 10
503.2144433671541
 20
58.05640908544643
 30
0.0
  0
VERTEX
  5
946
  8
FISHER___PAYKEL
 62
     7
 10
503.3157931240307
 20
58.20574040970587
 30
0.0
  0
VERTEX
  5
947
  8
FISHER___PAYKEL
 62
     7
 10
503.4099495215323
 20
58.35314937068405
 30
0.0
  0
VERTEX
  5
948
  8
FISHER___PAYKEL
 62
     7
 10
503.4970482102938
 20
58.49886463659386
 30
0.0
  0
VERTEX
  5
949
  8
FISHER___PAYKEL
 62
     7
 10
503.5772248409497
 20
58.64311487564822
 30
0.0
  0
VERTEX
  5
94A
  8
FISHER___PAYKEL
 62
     7
 10
503.6506150641349
 20
58.78612875605999
 30
0.0
  0
VERTEX
  5
94B
  8
FISHER___PAYKEL
 62
     7
 10
503.6848076637493
 20
58.85724352059144
 30
0.0
  0
VERTEX
  5
94C
  8
FISHER___PAYKEL
 62
     7
 10
503.7173545304842
 20
58.92813494604207
 30
0.0
  0
VERTEX
  5
94D
  8
FISHER___PAYKEL
 62
     7
 10
503.7482726206687
 20
58.99883161593851
 30
0.0
  0
VERTEX
  5
94E
  8
FISHER___PAYKEL
 62
     7
 10
503.7775788906323
 20
59.06936211380735
 30
0.0
  0
VERTEX
  5
94F
  8
FISHER___PAYKEL
 62
     7
 10
503.8052902967042
 20
59.13975502317522
 30
0.0
  0
VERTEX
  5
950
  8
FISHER___PAYKEL
 62
     7
 10
503.8314237952139
 20
59.21003892756872
 30
0.0
  0
VERTEX
  5
951
  8
FISHER___PAYKEL
 62
     7
 10
503.8559963424908
 20
59.28024241051448
 30
0.0
  0
VERTEX
  5
952
  8
FISHER___PAYKEL
 62
     7
 10
503.8790248948641
 20
59.35039405553908
 30
0.0
  0
VERTEX
  5
953
  8
FISHER___PAYKEL
 62
     7
 10
503.9005264086632
 20
59.42052244616916
 30
0.0
  0
VERTEX
  5
954
  8
FISHER___PAYKEL
 62
     7
 10
503.9205178402173
 20
59.49065616593132
 30
0.0
  0
VERTEX
  5
955
  8
FISHER___PAYKEL
 62
     7
 10
503.9390161458559
 20
59.56082379835217
 30
0.0
  0
VERTEX
  5
956
  8
FISHER___PAYKEL
 62
     7
 10
503.9560382819084
 20
59.63105392695832
 30
0.0
  0
VERTEX
  5
957
  8
FISHER___PAYKEL
 62
     7
 10
503.971601204704
 20
59.70137513527638
 30
0.0
  0
VERTEX
  5
958
  8
FISHER___PAYKEL
 62
     7
 10
503.9857218705721
 20
59.77181600683298
 30
0.0
  0
VERTEX
  5
959
  8
FISHER___PAYKEL
 62
     7
 10
503.9984172358421
 20
59.8424051251547
 30
0.0
  0
VERTEX
  5
95A
  8
FISHER___PAYKEL
 62
     7
 10
504.0097042568432
 20
59.91317107376818
 30
0.0
  0
VERTEX
  5
95B
  8
FISHER___PAYKEL
 62
     7
 10
504.019599889905
 20
59.98414243620001
 30
0.0
  0
VERTEX
  5
95C
  8
FISHER___PAYKEL
 62
     7
 10
504.0281210913565
 20
60.05534779597681
 30
0.0
  0
VERTEX
  5
95D
  8
FISHER___PAYKEL
 62
     7
 10
504.0352848175274
 20
60.1268157366252
 30
0.0
  0
VERTEX
  5
95E
  8
FISHER___PAYKEL
 62
     7
 10
504.0411080247469
 20
60.19857484167179
 30
0.0
  0
VERTEX
  5
95F
  8
FISHER___PAYKEL
 62
     7
 10
504.0456076693443
 20
60.27065369464317
 30
0.0
  0
VERTEX
  5
960
  8
FISHER___PAYKEL
 62
     7
 10
504.0488007076489
 20
60.34308087906598
 30
0.0
  0
VERTEX
  5
961
  8
FISHER___PAYKEL
 62
     7
 10
504.0507040959902
 20
60.41588497846681
 30
0.0
  0
VERTEX
  5
962
  8
FISHER___PAYKEL
 62
     7
 10
504.0513347906974
 20
60.48909457637228
 30
0.0
 42
0.4257191711897554
  0
VERTEX
  5
963
  8
FISHER___PAYKEL
 62
     7
 10
500.6717236795869
 20
63.66056679859449
 30
0.0
  0
VERTEX
  5
964
  8
FISHER___PAYKEL
 62
     7
 10
500.4953934649805
 20
63.65771942717524
 30
0.0
  0
VERTEX
  5
965
  8
FISHER___PAYKEL
 62
     7
 10
500.3228466111732
 20
63.64919798349035
 30
0.0
  0
VERTEX
  5
966
  8
FISHER___PAYKEL
 62
     7
 10
500.153959740683
 20
63.6350334733992
 30
0.0
  0
VERTEX
  5
967
  8
FISHER___PAYKEL
 62
     7
 10
500.0708502437186
 20
63.62584475778235
 30
0.0
  0
VERTEX
  5
968
  8
FISHER___PAYKEL
 62
     7
 10
499.9886094760277
 20
63.61525690276119
 30
0.0
  0
VERTEX
  5
969
  8
FISHER___PAYKEL
 62
     7
 10
499.907222015425
 20
63.60327378406816
 30
0.0
  0
VERTEX
  5
96A
  8
FISHER___PAYKEL
 62
     7
 10
499.8266724397253
 20
63.58989927743567
 30
0.0
  0
VERTEX
  5
96B
  8
FISHER___PAYKEL
 62
     7
 10
499.7469453267433
 20
63.57513725859614
 30
0.0
  0
VERTEX
  5
96C
  8
FISHER___PAYKEL
 62
     7
 10
499.6680252542936
 20
63.55899160328202
 30
0.0
  0
VERTEX
  5
96D
  8
FISHER___PAYKEL
 62
     7
 10
499.5898968001912
 20
63.54146618722571
 30
0.0
  0
VERTEX
  5
96E
  8
FISHER___PAYKEL
 62
     7
 10
499.5125445422507
 20
63.52256488615963
 30
0.0
  0
VERTEX
  5
96F
  8
FISHER___PAYKEL
 62
     7
 10
499.4359530582868
 20
63.5022915758162
 30
0.0
  0
VERTEX
  5
970
  8
FISHER___PAYKEL
 62
     7
 10
499.3601069261143
 20
63.48065013192786
 30
0.0
  0
VERTEX
  5
971
  8
FISHER___PAYKEL
 62
     7
 10
499.2849907235479
 20
63.45764443022701
 30
0.0
  0
VERTEX
  5
972
  8
FISHER___PAYKEL
 62
     7
 10
499.2105890284024
 20
63.43327834644609
 30
0.0
  0
VERTEX
  5
973
  8
FISHER___PAYKEL
 62
     7
 10
499.1368864184925
 20
63.4075557563175
 30
0.0
  0
VERTEX
  5
974
  8
FISHER___PAYKEL
 62
     7
 10
499.063867471633
 20
63.38048053557368
 30
0.0
  0
VERTEX
  5
975
  8
FISHER___PAYKEL
 62
     7
 10
498.9915167656385
 20
63.35205655994706
 30
0.0
  0
VERTEX
  5
976
  8
FISHER___PAYKEL
 62
     7
 10
498.9198188783238
 20
63.32228770517004
 30
0.0
  0
VERTEX
  5
977
  8
FISHER___PAYKEL
 62
     7
 10
498.8487583875036
 20
63.29117784697505
 30
0.0
  0
VERTEX
  5
978
  8
FISHER___PAYKEL
 62
     7
 10
498.7783198709927
 20
63.25873086109451
 30
0.0
  0
VERTEX
  5
979
  8
FISHER___PAYKEL
 62
     7
 10
498.7084879066059
 20
63.22495062326085
 30
0.0
  0
VERTEX
  5
97A
  8
FISHER___PAYKEL
 62
     7
 10
498.6392470721578
 20
63.18984100920648
 30
0.0
  0
VERTEX
  5
97B
  8
FISHER___PAYKEL
 62
     7
 10
498.5705819454632
 20
63.15340589466383
 30
0.0
  0
VERTEX
  5
97C
  8
FISHER___PAYKEL
 62
     7
 10
498.5024771043368
 20
63.11564915536533
 30
0.0
  0
VERTEX
  5
97D
  8
FISHER___PAYKEL
 62
     7
 10
498.4349171265934
 20
63.07657466704339
 30
0.0
  0
VERTEX
  5
97E
  8
FISHER___PAYKEL
 62
     7
 10
498.3678865900478
 20
63.03618630543043
 30
0.0
  0
VERTEX
  5
97F
  8
FISHER___PAYKEL
 62
     7
 10
498.2353521518086
 20
62.95148346526115
 30
0.0
  0
VERTEX
  5
980
  8
FISHER___PAYKEL
 62
     7
 10
498.1047504121371
 20
62.86157164071687
 30
0.0
  0
VERTEX
  5
981
  8
FISHER___PAYKEL
 62
     7
 10
497.9759579935512
 20
62.76648183765697
 30
0.0
  0
VERTEX
  5
982
  8
FISHER___PAYKEL
 62
     7
 10
497.8488515185688
 20
62.66624506194081
 30
0.0
  0
VERTEX
  5
983
  8
FISHER___PAYKEL
 62
     7
 10
497.7233076097078
 20
62.56089231942778
 30
0.0
  0
VERTEX
  5
984
  8
FISHER___PAYKEL
 62
     7
 10
497.5992028894863
 20
62.45045461597725
 30
0.0
  0
VERTEX
  5
985
  8
FISHER___PAYKEL
 62
     7
 10
497.4764139804219
 20
62.33496295744858
 30
0.0
  0
VERTEX
  5
986
  8
FISHER___PAYKEL
 62
     7
 10
497.3548175050326
 20
62.21444834970117
 30
0.0
  0
VERTEX
  5
987
  8
FISHER___PAYKEL
 62
     7
 10
497.2342900858364
 20
62.08894179859439
 30
0.0
  0
VERTEX
  5
988
  8
FISHER___PAYKEL
 62
     7
 10
497.1147083453511
 20
61.95847430998759
 30
0.0
  0
VERTEX
  5
989
  8
FISHER___PAYKEL
 62
     7
 10
496.9959489060947
 20
61.82307688974019
 30
0.0
  0
VERTEX
  5
98A
  8
FISHER___PAYKEL
 62
     7
 10
496.877888390585
 20
61.68278054371153
 30
0.0
  0
VERTEX
  5
98B
  8
FISHER___PAYKEL
 62
     7
 10
496.7604034213399
 20
61.53761627776099
 30
0.0
  0
VERTEX
  5
98C
  8
FISHER___PAYKEL
 62
     7
 10
496.5266666117154
 20
61.23280800953178
 30
0.0
  0
VERTEX
  5
98D
  8
FISHER___PAYKEL
 62
     7
 10
496.2937514573644
 20
60.90890013192757
 30
0.0
  0
VERTEX
  5
98E
  8
FISHER___PAYKEL
 62
     7
 10
495.4611959018077
 20
61.45923346526024
 30
0.0
  0
VERTEX
  5
98F
  8
FISHER___PAYKEL
 62
     7
 10
495.7065883307358
 20
61.81924938865449
 30
0.0
  0
VERTEX
  5
990
  8
FISHER___PAYKEL
 62
     7
 10
495.8305861453381
 20
61.99232883269211
 30
0.0
  0
VERTEX
  5
991
  8
FISHER___PAYKEL
 62
     7
 10
495.9557324686482
 20
62.16068246699664
 30
0.0
  0
VERTEX
  5
992
  8
FISHER___PAYKEL
 62
     7
 10
496.0822378821275
 20
62.32423019309805
 30
0.0
  0
VERTEX
  5
993
  8
FISHER___PAYKEL
 62
     7
 10
496.2103129672377
 20
62.48289191252627
 30
0.0
  0
VERTEX
  5
994
  8
FISHER___PAYKEL
 62
     7
 10
496.3401683054403
 20
62.63658752681127
 30
0.0
  0
VERTEX
  5
995
  8
FISHER___PAYKEL
 62
     7
 10
496.472014478197
 20
62.78523693748298
 30
0.0
  0
VERTEX
  5
996
  8
FISHER___PAYKEL
 62
     7
 10
496.6060620669693
 20
62.92876004607135
 30
0.0
  0
VERTEX
  5
997
  8
FISHER___PAYKEL
 62
     7
 10
496.7425216532188
 20
63.06707675410634
 30
0.0
  0
VERTEX
  5
998
  8
FISHER___PAYKEL
 62
     7
 10
496.8816038184071
 20
63.20010696311788
 30
0.0
  0
VERTEX
  5
999
  8
FISHER___PAYKEL
 62
     7
 10
497.0235191439958
 20
63.32777057463593
 30
0.0
  0
VERTEX
  5
99A
  8
FISHER___PAYKEL
 62
     7
 10
497.1684782114465
 20
63.44998749019043
 30
0.0
  0
VERTEX
  5
99B
  8
FISHER___PAYKEL
 62
     7
 10
497.3166916022207
 20
63.56667761131134
 30
0.0
  0
VERTEX
  5
99C
  8
FISHER___PAYKEL
 62
     7
 10
497.3920844755609
 20
63.62292509318731
 30
0.0
  0
VERTEX
  5
99D
  8
FISHER___PAYKEL
 62
     7
 10
497.4683698977801
 20
63.6777608395286
 30
0.0
  0
VERTEX
  5
99E
  8
FISHER___PAYKEL
 62
     7
 10
497.5455741915609
 20
63.73117483802648
 30
0.0
  0
VERTEX
  5
99F
  8
FISHER___PAYKEL
 62
     7
 10
497.6237236795862
 20
63.78315707637216
 30
0.0
  0
VERTEX
  5
9A0
  8
FISHER___PAYKEL
 62
     7
 10
497.7028446845385
 20
63.83369754225691
 30
0.0
  0
VERTEX
  5
9A1
  8
FISHER___PAYKEL
 62
     7
 10
497.7829635291006
 20
63.88278622337197
 30
0.0
  0
VERTEX
  5
9A2
  8
FISHER___PAYKEL
 62
     7
 10
497.8641065359552
 20
63.93041310740858
 30
0.0
  0
VERTEX
  5
9A3
  8
FISHER___PAYKEL
 62
     7
 10
497.946300027785
 20
63.97656818205797
 30
0.0
  0
VERTEX
  5
9A4
  8
FISHER___PAYKEL
 62
     7
 10
498.0295703272727
 20
64.0212414350114
 30
0.0
  0
VERTEX
  5
9A5
  8
FISHER___PAYKEL
 62
     7
 10
498.1139437571009
 20
64.06442285396011
 30
0.0
  0
VERTEX
  5
9A6
  8
FISHER___PAYKEL
 62
     7
 10
498.1994466399524
 20
64.10610242659536
 30
0.0
  0
VERTEX
  5
9A7
  8
FISHER___PAYKEL
 62
     7
 10
498.2861052985098
 20
64.14627014060835
 30
0.0
  0
VERTEX
  5
9A8
  8
FISHER___PAYKEL
 62
     7
 10
498.373946055456
 20
64.18491598369037
 30
0.0
  0
VERTEX
  5
9A9
  8
FISHER___PAYKEL
 62
     7
 10
498.4629952334735
 20
64.22202994353262
 30
0.0
  0
VERTEX
  5
9AA
  8
FISHER___PAYKEL
 62
     7
 10
498.5532791552451
 20
64.25760200782638
 30
0.0
  0
VERTEX
  5
9AB
  8
FISHER___PAYKEL
 62
     7
 10
498.6448241434534
 20
64.29162216426289
 30
0.0
  0
VERTEX
  5
9AC
  8
FISHER___PAYKEL
 62
     7
 10
498.7376565207812
 20
64.32408040053338
 30
0.0
  0
VERTEX
  5
9AD
  8
FISHER___PAYKEL
 62
     7
 10
498.8318026099112
 20
64.3549667043291
 30
0.0
  0
VERTEX
  5
9AE
  8
FISHER___PAYKEL
 62
     7
 10
498.927288733526
 20
64.38427106334129
 30
0.0
  0
VERTEX
  5
9AF
  8
FISHER___PAYKEL
 62
     7
 10
499.0241412143084
 20
64.41198346526119
 30
0.0
  0
VERTEX
  5
9B0
  8
FISHER___PAYKEL
 62
     7
 10
499.1223863749411
 20
64.43809389778005
 30
0.0
  0
VERTEX
  5
9B1
  8
FISHER___PAYKEL
 62
     7
 10
499.2220505381067
 20
64.4625923485891
 30
0.0
  0
VERTEX
  5
9B2
  8
FISHER___PAYKEL
 62
     7
 10
499.323160026488
 20
64.48546880537961
 30
0.0
  0
VERTEX
  5
9B3
  8
FISHER___PAYKEL
 62
     7
 10
499.4257411627676
 20
64.50671325584281
 30
0.0
  0
VERTEX
  5
9B4
  8
FISHER___PAYKEL
 62
     7
 10
499.5298202696283
 20
64.52631568766992
 30
0.0
  0
VERTEX
  5
9B5
  8
FISHER___PAYKEL
 62
     7
 10
499.6354236697526
 20
64.54426608855223
 30
0.0
  0
VERTEX
  5
9B6
  8
FISHER___PAYKEL
 62
     7
 10
499.8513086405236
 20
64.57517074824733
 30
0.0
  0
VERTEX
  5
9B7
  8
FISHER___PAYKEL
 62
     7
 10
500.0736066565419
 20
64.59934713645805
 30
0.0
  0
VERTEX
  5
9B8
  8
FISHER___PAYKEL
 62
     7
 10
500.3025282992691
 20
64.61671515471434
 30
0.0
  0
VERTEX
  5
9B9
  8
FISHER___PAYKEL
 62
     7
 10
500.538284150167
 20
64.62719470454616
 30
0.0
  0
VERTEX
  5
9BA
  8
FISHER___PAYKEL
 62
     7
 10
500.7810847906969
 20
64.63070568748343
 30
0.0
 42
-0.4261885651734459
  0
VERTEX
  5
9BB
  8
FISHER___PAYKEL
 62
     7
 10
505.2260847906975
 20
60.57023346526103
 30
0.0
  0
VERTEX
  5
9BC
  8
FISHER___PAYKEL
 62
     7
 10
505.2260847906975
 20
60.52790013192725
 30
0.0
  0
VERTEX
  5
9BD
  8
FISHER___PAYKEL
 62
     7
 10
505.2252693392874
 20
60.43330256034238
 30
0.0
  0
VERTEX
  5
9BE
  8
FISHER___PAYKEL
 62
     7
 10
505.2228167946512
 20
60.33965333203448
 30
0.0
  0
VERTEX
  5
9BF
  8
FISHER___PAYKEL
 62
     7
 10
505.2187178711799
 20
60.24691377042376
 30
0.0
  0
VERTEX
  5
9C0
  8
FISHER___PAYKEL
 62
     7
 10
505.2129632832648
 20
60.15504519893043
 30
0.0
  0
VERTEX
  5
9C1
  8
FISHER___PAYKEL
 62
     7
 10
505.2055437452967
 20
60.0640089409747
 30
0.0
  0
VERTEX
  5
9C2
  8
FISHER___PAYKEL
 62
     7
 10
505.1964499716668
 20
59.97376631997676
 30
0.0
  0
VERTEX
  5
9C3
  8
FISHER___PAYKEL
 62
     7
 10
505.185672676766
 20
59.88427865935684
 30
0.0
  0
VERTEX
  5
9C4
  8
FISHER___PAYKEL
 62
     7
 10
505.1732025749857
 20
59.79550728253513
 30
0.0
  0
VERTEX
  5
9C5
  8
FISHER___PAYKEL
 62
     7
 10
505.1590303807168
 20
59.70741351293184
 30
0.0
  0
VERTEX
  5
9C6
  8
FISHER___PAYKEL
 62
     7
 10
505.1431468083503
 20
59.61995867396718
 30
0.0
  0
VERTEX
  5
9C7
  8
FISHER___PAYKEL
 62
     7
 10
505.1255425722774
 20
59.53310408906135
 30
0.0
  0
VERTEX
  5
9C8
  8
FISHER___PAYKEL
 62
     7
 10
505.106208386889
 20
59.44681108163457
 30
0.0
  0
VERTEX
  5
9C9
  8
FISHER___PAYKEL
 62
     7
 10
505.0851349665763
 20
59.36104097510704
 30
0.0
  0
VERTEX
  5
9CA
  8
FISHER___PAYKEL
 62
     7
 10
505.0623130257304
 20
59.27575509289896
 30
0.0
  0
VERTEX
  5
9CB
  8
FISHER___PAYKEL
 62
     7
 10
505.0377332787423
 20
59.19091475843055
 30
0.0
  0
VERTEX
  5
9CC
  8
FISHER___PAYKEL
 62
     7
 10
505.0113864400031
 20
59.10648129512201
 30
0.0
  0
VERTEX
  5
9CD
  8
FISHER___PAYKEL
 62
     7
 10
504.9832632239039
 20
59.02241602639354
 30
0.0
  0
VERTEX
  5
9CE
  8
FISHER___PAYKEL
 62
     7
 10
504.9533543448357
 20
58.93868027566536
 30
0.0
  0
VERTEX
  5
9CF
  8
FISHER___PAYKEL
 62
     7
 10
504.9216505171896
 20
58.85523536635768
 30
0.0
  0
VERTEX
  5
9D0
  8
FISHER___PAYKEL
 62
     7
 10
504.8881424553568
 20
58.77204262189068
 30
0.0
  0
VERTEX
  5
9D1
  8
FISHER___PAYKEL
 62
     7
 10
504.8528208737283
 20
58.68906336568458
 30
0.0
  0
VERTEX
  5
9D2
  8
FISHER___PAYKEL
 62
     7
 10
504.815676486695
 20
58.60625892115959
 30
0.0
  0
VERTEX
  5
9D3
  8
FISHER___PAYKEL
 62
     7
 10
504.7767000086481
 20
58.52359061173593
 30
0.0
  0
VERTEX
  5
9D4
  8
FISHER___PAYKEL
 62
     7
 10
504.7358821539788
 20
58.4410197608338
 30
0.0
  0
VERTEX
  5
9D5
  8
FISHER___PAYKEL
 62
     7
 10
504.693213637078
 20
58.35850769187338
 30
0.0
  0
VERTEX
  5
9D6
  8
FISHER___PAYKEL
 62
     7
 10
504.6486851723367
 20
58.27601572827491
 30
0.0
  0
VERTEX
  5
9D7
  8
FISHER___PAYKEL
 62
     7
 10
504.5540112568975
 20
58.11093741084461
 30
0.0
  0
VERTEX
  5
9D8
  8
FISHER___PAYKEL
 62
     7
 10
504.4517861227897
 20
57.94547539590454
 30
0.0
  0
VERTEX
  5
9D9
  8
FISHER___PAYKEL
 62
     7
 10
504.3419354851419
 20
57.77932027081636
 30
0.0
  0
VERTEX
  5
9DA
  8
FISHER___PAYKEL
 62
     7
 10
504.2243850590826
 20
57.61216262294171
 30
0.0
  0
VERTEX
  5
9DB
  8
FISHER___PAYKEL
 62
     7
 10
504.0990605597403
 20
57.44369303964227
 30
0.0
  0
VERTEX
  5
9DC
  8
FISHER___PAYKEL
 62
     7
 10
503.9658877022438
 20
57.27360210827968
 30
0.0
  0
VERTEX
  5
9DD
  8
FISHER___PAYKEL
 62
     7
 10
503.8247922017217
 20
57.10158041621558
 30
0.0
  0
VERTEX
  5
9DE
  8
FISHER___PAYKEL
 62
     7
 10
503.6756997733023
 20
56.92731855081166
 30
0.0
  0
VERTEX
  5
9DF
  8
FISHER___PAYKEL
 62
     7
 10
503.5185361321144
 20
56.75050709942954
 30
0.0
  0
VERTEX
  5
9E0
  8
FISHER___PAYKEL
 62
     7
 10
503.1796980719472
 20
56.38799778817737
 30
0.0
  0
VERTEX
  5
9E1
  8
FISHER___PAYKEL
 62
     7
 10
502.8076837422487
 20
56.01157718135231
 30
0.0
  0
VERTEX
  5
9E2
  8
FISHER___PAYKEL
 62
     7
 10
502.4018988640477
 20
55.61876997784759
 30
0.0
  0
VERTEX
  5
9E3
  8
FISHER___PAYKEL
 62
     7
 10
501.4866403462522
 20
54.77409457637214
 30
0.0
  0
VERTEX
  5
9E4
  8
FISHER___PAYKEL
 62
     7
 10
496.914640346253
 20
50.67128902081686
 30
0.0
  0
VERTEX
  5
9E5
  8
FISHER___PAYKEL
 62
     7
 10
505.3777792351414
 20
50.67128902081686
 30
0.0
  0
VERTEX
  5
9E6
  8
FISHER___PAYKEL
 62
     7
 10
505.3777792351414
 20
49.61295568748346
 30
0.0
  0
VERTEX
  5
9E7
  8
FISHER___PAYKEL
 62
     7
 10
495.1613347906971
 20
49.61295568748346
 30
0.0
  0
SEQEND
  5
9E8
  8
FISHER___PAYKEL
 62
     7
  0
POLYLINE
  5
9E9
  8
FISHER___PAYKEL
 62
     7
 66
     1
 10
0.0
 20
0.0
 30
0.0
 70
     1
  0
VERTEX
  5
9EA
  8
FISHER___PAYKEL
 62
     7
 10
262.617279235142
 20
56.97542790970465
 30
0.0
  0
VERTEX
  5
9EB
  8
FISHER___PAYKEL
 62
     7
 10
262.617279235142
 20
57.01776124303842
 30
0.0
  0
VERTEX
  5
9EC
  8
FISHER___PAYKEL
 62
     7
 10
262.6158432089926
 20
57.1793033314411
 30
0.0
  0
VERTEX
  5
9ED
  8
FISHER___PAYKEL
 62
     7
 10
262.6115477805046
 20
57.34043103945233
 30
0.0
  0
VERTEX
  5
9EE
  8
FISHER___PAYKEL
 62
     7
 10
262.6044119246179
 20
57.50107621877704
 30
0.0
  0
VERTEX
  5
9EF
  8
FISHER___PAYKEL
 62
     7
 10
262.5944546162726
 20
57.66117072112014
 30
0.0
  0
VERTEX
  5
9F0
  8
FISHER___PAYKEL
 62
     7
 10
262.5816948304085
 20
57.82064639818655
 30
0.0
  0
VERTEX
  5
9F1
  8
FISHER___PAYKEL
 62
     7
 10
262.5661515419657
 20
57.97943510168118
 30
0.0
  0
VERTEX
  5
9F2
  8
FISHER___PAYKEL
 62
     7
 10
262.5478437258841
 20
58.13746868330895
 30
0.0
  0
VERTEX
  5
9F3
  8
FISHER___PAYKEL
 62
     7
 10
262.5267903571038
 20
58.29467899477477
 30
0.0
  0
VERTEX
  5
9F4
  8
FISHER___PAYKEL
 62
     7
 10
262.5030104105647
 20
58.45099788778355
 30
0.0
  0
VERTEX
  5
9F5
  8
FISHER___PAYKEL
 62
     7
 10
262.4765228612067
 20
58.60635721404022
 30
0.0
  0
VERTEX
  5
9F6
  8
FISHER___PAYKEL
 62
     7
 10
262.4473466839699
 20
58.76068882524967
 30
0.0
  0
VERTEX
  5
9F7
  8
FISHER___PAYKEL
 62
     7
 10
262.4155008537943
 20
58.91392457311686
 30
0.0
  0
VERTEX
  5
9F8
  8
FISHER___PAYKEL
 62
     7
 10
262.3810043456199
 20
59.06599630934667
 30
0.0
  0
VERTEX
  5
9F9
  8
FISHER___PAYKEL
 62
     7
 10
262.3438761343865
 20
59.21683588564402
 30
0.0
  0
VERTEX
  5
9FA
  8
FISHER___PAYKEL
 62
     7
 10
262.3041351950343
 20
59.36637515371383
 30
0.0
  0
VERTEX
  5
9FB
  8
FISHER___PAYKEL
 62
     7
 10
262.2618005025031
 20
59.51454596526102
 30
0.0
  0
VERTEX
  5
9FC
  8
FISHER___PAYKEL
 62
     7
 10
262.216891031733
 20
59.6612801719905
 30
0.0
  0
VERTEX
  5
9FD
  8
FISHER___PAYKEL
 62
     7
 10
262.1694257576639
 20
59.80650962560718
 30
0.0
  0
VERTEX
  5
9FE
  8
FISHER___PAYKEL
 62
     7
 10
262.1194236552359
 20
59.95016617781599
 30
0.0
  0
VERTEX
  5
9FF
  8
FISHER___PAYKEL
 62
     7
 10
262.0669036993889
 20
60.09218168032183
 30
0.0
  0
VERTEX
  5
A00
  8
FISHER___PAYKEL
 62
     7
 10
262.0118848650629
 20
60.23248798482962
 30
0.0
  0
VERTEX
  5
A01
  8
FISHER___PAYKEL
 62
     7
 10
261.9543861271979
 20
60.37101694304428
 30
0.0
  0
VERTEX
  5
A02
  8
FISHER___PAYKEL
 62
     7
 10
261.8944264607338
 20
60.50770040667072
 30
0.0
  0
VERTEX
  5
A03
  8
FISHER___PAYKEL
 62
     7
 10
261.8320248406107
 20
60.64247022741387
 30
0.0
  0
VERTEX
  5
A04
  8
FISHER___PAYKEL
 62
     7
 10
261.7672002417685
 20
60.77525825697862
 30
0.0
  0
VERTEX
  5
A05
  8
FISHER___PAYKEL
 62
     7
 10
261.6999716391472
 20
60.90599634706991
 30
0.0
  0
VERTEX
  5
A06
  8
FISHER___PAYKEL
 62
     7
 10
261.6303580076868
 20
61.03461634939264
 30
0.0
  0
VERTEX
  5
A07
  8
FISHER___PAYKEL
 62
     7
 10
261.5583783223273
 20
61.16105011565173
 30
0.0
  0
VERTEX
  5
A08
  8
FISHER___PAYKEL
 62
     7
 10
261.4840515580086
 20
61.28522949755209
 30
0.0
  0
VERTEX
  5
A09
  8
FISHER___PAYKEL
 62
     7
 10
261.4073966896707
 20
61.40708634679865
 30
0.0
  0
VERTEX
  5
A0A
  8
FISHER___PAYKEL
 62
     7
 10
261.3284326922537
 20
61.52655251509631
 30
0.0
  0
VERTEX
  5
A0B
  8
FISHER___PAYKEL
 62
     7
 10
261.2471785406975
 20
61.64355985415
 30
0.0
  0
VERTEX
  5
A0C
  8
FISHER___PAYKEL
 62
     7
 10
261.163653209942
 20
61.75804021566462
 30
0.0
  0
VERTEX
  5
A0D
  8
FISHER___PAYKEL
 62
     7
 10
261.0778756749274
 20
61.86992545134509
 30
0.0
  0
VERTEX
  5
A0E
  8
FISHER___PAYKEL
 62
     7
 10
260.9898649105935
 20
61.97914741289633
 30
0.0
  0
VERTEX
  5
A0F
  8
FISHER___PAYKEL
 62
     7
 10
260.8996398918803
 20
62.08563795202326
 30
0.0
  0
VERTEX
  5
A10
  8
FISHER___PAYKEL
 62
     7
 10
260.8072195937277
 20
62.18932892043078
 30
0.0
  0
VERTEX
  5
A11
  8
FISHER___PAYKEL
 62
     7
 10
260.7126229910759
 20
62.29015216982382
 30
0.0
  0
VERTEX
  5
A12
  8
FISHER___PAYKEL
 62
     7
 10
260.6158690588649
 20
62.38803955190728
 30
0.0
  0
VERTEX
  5
A13
  8
FISHER___PAYKEL
 62
     7
 10
260.5169767720344
 20
62.48292291838609
 30
0.0
  0
VERTEX
  5
A14
  8
FISHER___PAYKEL
 62
     7
 10
260.4159651055245
 20
62.57473412096517
 30
0.0
  0
VERTEX
  5
A15
  8
FISHER___PAYKEL
 62
     7
 10
260.3128530342752
 20
62.66340501134941
 30
0.0
  0
VERTEX
  5
A16
  8
FISHER___PAYKEL
 62
     7
 10
260.2076595332266
 20
62.74886744124375
 30
0.0
  0
VERTEX
  5
A17
  8
FISHER___PAYKEL
 62
     7
 10
260.1004035773186
 20
62.83105326235309
 30
0.0
  0
VERTEX
  5
A18
  8
FISHER___PAYKEL
 62
     7
 10
259.9911041414911
 20
62.90989432638236
 30
0.0
  0
VERTEX
  5
A19
  8
FISHER___PAYKEL
 62
     7
 10
259.8797802006842
 20
62.98532248503646
 30
0.0
  0
VERTEX
  5
A1A
  8
FISHER___PAYKEL
 62
     7
 10
259.7664507298377
 20
63.0572695900203
 30
0.0
  0
VERTEX
  5
A1B
  8
FISHER___PAYKEL
 62
     7
 10
259.6511347038919
 20
63.12566749303883
 30
0.0
  0
VERTEX
  5
A1C
  8
FISHER___PAYKEL
 62
     7
 10
259.5338510977865
 20
63.19044804579694
 30
0.0
  0
VERTEX
  5
A1D
  8
FISHER___PAYKEL
 62
     7
 10
259.4146188864615
 20
63.25154309999955
 30
0.0
  0
VERTEX
  5
A1E
  8
FISHER___PAYKEL
 62
     7
 10
259.2934570448571
 20
63.30888450735156
 30
0.0
  0
VERTEX
  5
A1F
  8
FISHER___PAYKEL
 62
     7
 10
259.1703845479131
 20
63.36240411955792
 30
0.0
  0
VERTEX
  5
A20
  8
FISHER___PAYKEL
 62
     7
 10
259.0454203705696
 20
63.41203378832351
 30
0.0
  0
VERTEX
  5
A21
  8
FISHER___PAYKEL
 62
     7
 10
258.9185834877663
 20
63.45770536535326
 30
0.0
  0
VERTEX
  5
A22
  8
FISHER___PAYKEL
 62
     7
 10
258.7898928744435
 20
63.49935070235209
 30
0.0
  0
VERTEX
  5
A23
  8
FISHER___PAYKEL
 62
     7
 10
258.659367505541
 20
63.53690165102491
 30
0.0
  0
VERTEX
  5
A24
  8
FISHER___PAYKEL
 62
     7
 10
258.5270263559989
 20
63.57029006307664
 30
0.0
  0
VERTEX
  5
A25
  8
FISHER___PAYKEL
 62
     7
 10
258.3928884007572
 20
63.59944779021218
 30
0.0
  0
VERTEX
  5
A26
  8
FISHER___PAYKEL
 62
     7
 10
258.2569726147557
 20
63.62430668413646
 30
0.0
  0
VERTEX
  5
A27
  8
FISHER___PAYKEL
 62
     7
 10
258.1192979729346
 20
63.64479859655441
 30
0.0
  0
VERTEX
  5
A28
  8
FISHER___PAYKEL
 62
     7
 10
257.9798834502337
 20
63.66085537917091
 30
0.0
  0
VERTEX
  5
A29
  8
FISHER___PAYKEL
 62
     7
 10
257.8387480215931
 20
63.67240888369091
 30
0.0
  0
VERTEX
  5
A2A
  8
FISHER___PAYKEL
 62
     7
 10
257.6959106619528
 20
63.6793909618193
 30
0.0
  0
VERTEX
  5
A2B
  8
FISHER___PAYKEL
 62
     7
 10
257.5513903462527
 20
63.681733465261
 30
0.0
  0
VERTEX
  5
A2C
  8
FISHER___PAYKEL
 62
     7
 10
257.4070635076533
 20
63.67941910125157
 30
0.0
  0
VERTEX
  5
A2D
  8
FISHER___PAYKEL
 62
     7
 10
257.2644746120675
 20
63.67252031099804
 30
0.0
  0
VERTEX
  5
A2E
  8
FISHER___PAYKEL
 62
     7
 10
257.1236407773134
 20
63.66110354716255
 30
0.0
  0
VERTEX
  5
A2F
  8
FISHER___PAYKEL
 62
     7
 10
256.9845791212092
 20
63.64523526240727
 30
0.0
  0
VERTEX
  5
A30
  8
FISHER___PAYKEL
 62
     7
 10
256.8473067615731
 20
63.62498190939434
 30
0.0
  0
VERTEX
  5
A31
  8
FISHER___PAYKEL
 62
     7
 10
256.7118408162233
 20
63.60040994078589
 30
0.0
  0
VERTEX
  5
A32
  8
FISHER___PAYKEL
 62
     7
 10
256.578198402978
 20
63.57158580924411
 30
0.0
  0
VERTEX
  5
A33
  8
FISHER___PAYKEL
 62
     7
 10
256.4463966396553
 20
63.53857596743114
 30
0.0
  0
VERTEX
  5
A34
  8
FISHER___PAYKEL
 62
     7
 10
256.3164526440736
 20
63.50144686800911
 30
0.0
  0
VERTEX
  5
A35
  8
FISHER___PAYKEL
 62
     7
 10
256.188383534051
 20
63.46026496364017
 30
0.0
  0
VERTEX
  5
A36
  8
FISHER___PAYKEL
 62
     7
 10
256.0622064274056
 20
63.41509670698648
 30
0.0
  0
VERTEX
  5
A37
  8
FISHER___PAYKEL
 62
     7
 10
255.9379384419557
 20
63.36600855071021
 30
0.0
  0
VERTEX
  5
A38
  8
FISHER___PAYKEL
 62
     7
 10
255.8155966955194
 20
63.31306694747347
 30
0.0
  0
VERTEX
  5
A39
  8
FISHER___PAYKEL
 62
     7
 10
255.6951983059151
 20
63.25633834993844
 30
0.0
  0
VERTEX
  5
A3A
  8
FISHER___PAYKEL
 62
     7
 10
255.5767603909608
 20
63.19588921076726
 30
0.0
  0
VERTEX
  5
A3B
  8
FISHER___PAYKEL
 62
     7
 10
255.4603000684747
 20
63.13178598262208
 30
0.0
  0
VERTEX
  5
A3C
  8
FISHER___PAYKEL
 62
     7
 10
255.3458344562752
 20
63.06409511816505
 30
0.0
  0
VERTEX
  5
A3D
  8
FISHER___PAYKEL
 62
     7
 10
255.2333806721802
 20
62.99288307005832
 30
0.0
  0
VERTEX
  5
A3E
  8
FISHER___PAYKEL
 62
     7
 10
255.1229558340082
 20
62.91821629096404
 30
0.0
  0
VERTEX
  5
A3F
  8
FISHER___PAYKEL
 62
     7
 10
255.0145770595772
 20
62.84016123354436
 30
0.0
  0
VERTEX
  5
A40
  8
FISHER___PAYKEL
 62
     7
 10
254.9082614667054
 20
62.75878435046143
 30
0.0
  0
VERTEX
  5
A41
  8
FISHER___PAYKEL
 62
     7
 10
254.8040261732111
 20
62.6741520943774
 30
0.0
  0
VERTEX
  5
A42
  8
FISHER___PAYKEL
 62
     7
 10
254.7018882969124
 20
62.58633091795443
 30
0.0
  0
VERTEX
  5
A43
  8
FISHER___PAYKEL
 62
     7
 10
254.6018649556275
 20
62.49538727385466
 30
0.0
  0
VERTEX
  5
A44
  8
FISHER___PAYKEL
 62
     7
 10
254.5039732671747
 20
62.40138761474024
 30
0.0
  0
VERTEX
  5
A45
  8
FISHER___PAYKEL
 62
     7
 10
254.4082303493721
 20
62.30439839327332
 30
0.0
  0
VERTEX
  5
A46
  8
FISHER___PAYKEL
 62
     7
 10
254.314653320038
 20
62.20448606211605
 30
0.0
  0
VERTEX
  5
A47
  8
FISHER___PAYKEL
 62
     7
 10
254.2232592969904
 20
62.10171707393058
 30
0.0
  0
VERTEX
  5
A48
  8
FISHER___PAYKEL
 62
     7
 10
254.1340653980477
 20
61.99615788137906
 30
0.0
  0
VERTEX
  5
A49
  8
FISHER___PAYKEL
 62
     7
 10
254.0470887410279
 20
61.88787493712365
 30
0.0
  0
VERTEX
  5
A4A
  8
FISHER___PAYKEL
 62
     7
 10
253.9623464437495
 20
61.77693469382648
 30
0.0
  0
VERTEX
  5
A4B
  8
FISHER___PAYKEL
 62
     7
 10
253.8798556240304
 20
61.66340360414972
 30
0.0
  0
VERTEX
  5
A4C
  8
FISHER___PAYKEL
 62
     7
 10
253.7996333996889
 20
61.54734812075552
 30
0.0
  0
VERTEX
  5
A4D
  8
FISHER___PAYKEL
 62
     7
 10
253.7216968885432
 20
61.428834696306
 30
0.0
  0
VERTEX
  5
A4E
  8
FISHER___PAYKEL
 62
     7
 10
253.6460632084115
 20
61.30792978346334
 30
0.0
  0
VERTEX
  5
A4F
  8
FISHER___PAYKEL
 62
     7
 10
253.572749477112
 20
61.18469983488968
 30
0.0
  0
VERTEX
  5
A50
  8
FISHER___PAYKEL
 62
     7
 10
253.5017728124629
 20
61.05921130324718
 30
0.0
  0
VERTEX
  5
A51
  8
FISHER___PAYKEL
 62
     7
 10
253.4331503322824
 20
60.93153064119798
 30
0.0
  0
VERTEX
  5
A52
  8
FISHER___PAYKEL
 62
     7
 10
253.3668991543887
 20
60.80172430140423
 30
0.0
  0
VERTEX
  5
A53
  8
FISHER___PAYKEL
 62
     7
 10
253.3030363965999
 20
60.66985873652808
 30
0.0
  0
VERTEX
  5
A54
  8
FISHER___PAYKEL
 62
     7
 10
253.2415791767343
 20
60.53600039923169
 30
0.0
  0
VERTEX
  5
A55
  8
FISHER___PAYKEL
 62
     7
 10
253.1825446126101
 20
60.4002157421772
 30
0.0
  0
VERTEX
  5
A56
  8
FISHER___PAYKEL
 62
     7
 10
253.1259498220455
 20
60.26257121802675
 30
0.0
  0
VERTEX
  5
A57
  8
FISHER___PAYKEL
 62
     7
 10
253.0718119228586
 20
60.12313327944251
 30
0.0
  0
VERTEX
  5
A58
  8
FISHER___PAYKEL
 62
     7
 10
253.0201480328677
 20
59.98196837908662
 30
0.0
  0
VERTEX
  5
A59
  8
FISHER___PAYKEL
 62
     7
 10
252.970975269891
 20
59.83914296962124
 30
0.0
  0
VERTEX
  5
A5A
  8
FISHER___PAYKEL
 62
     7
 10
252.9243107517466
 20
59.6947235037085
 30
0.0
  0
VERTEX
  5
A5B
  8
FISHER___PAYKEL
 62
     7
 10
252.8801715962528
 20
59.54877643401058
 30
0.0
  0
VERTEX
  5
A5C
  8
FISHER___PAYKEL
 62
     7
 10
252.8385749212277
 20
59.4013682131896
 30
0.0
  0
VERTEX
  5
A5D
  8
FISHER___PAYKEL
 62
     7
 10
252.7995378444895
 20
59.25256529390772
 30
0.0
  0
VERTEX
  5
A5E
  8
FISHER___PAYKEL
 62
     7
 10
252.7630774838565
 20
59.1024341288271
 30
0.0
  0
VERTEX
  5
A5F
  8
FISHER___PAYKEL
 62
     7
 10
252.7292109571469
 20
58.95104117060988
 30
0.0
  0
VERTEX
  5
A60
  8
FISHER___PAYKEL
 62
     7
 10
252.6979553821788
 20
58.79845287191822
 30
0.0
  0
VERTEX
  5
A61
  8
FISHER___PAYKEL
 62
     7
 10
252.6693278767704
 20
58.64473568541425
 30
0.0
  0
VERTEX
  5
A62
  8
FISHER___PAYKEL
 62
     7
 10
252.64334555874
 20
58.48995606376014
 30
0.0
  0
VERTEX
  5
A63
  8
FISHER___PAYKEL
 62
     7
 10
252.6200255459056
 20
58.33418045961803
 30
0.0
  0
VERTEX
  5
A64
  8
FISHER___PAYKEL
 62
     7
 10
252.5993849560856
 20
58.17747532565008
 30
0.0
  0
VERTEX
  5
A65
  8
FISHER___PAYKEL
 62
     7
 10
252.5814409070981
 20
58.01990711451843
 30
0.0
  0
VERTEX
  5
A66
  8
FISHER___PAYKEL
 62
     7
 10
252.5662105167613
 20
57.86154227888524
 30
0.0
  0
VERTEX
  5
A67
  8
FISHER___PAYKEL
 62
     7
 10
252.5537109028935
 20
57.70244727141264
 30
0.0
  0
VERTEX
  5
A68
  8
FISHER___PAYKEL
 62
     7
 10
252.5369724758372
 20
57.38233255159786
 30
0.0
  0
VERTEX
  5
A69
  8
FISHER___PAYKEL
 62
     7
 10
252.5313625684751
 20
57.06009457637128
 30
0.0
  0
VERTEX
  5
A6A
  8
FISHER___PAYKEL
 62
     7
 10
252.5313625684751
 20
57.01776124303842
 30
0.0
  0
VERTEX
  5
A6B
  8
FISHER___PAYKEL
 62
     7
 10
252.5327985946244
 20
56.85734081582204
 30
0.0
  0
VERTEX
  5
A6C
  8
FISHER___PAYKEL
 62
     7
 10
252.5370940231124
 20
56.69726411762483
 30
0.0
  0
VERTEX
  5
A6D
  8
FISHER___PAYKEL
 62
     7
 10
252.5442298789991
 20
56.53760099237478
 30
0.0
  0
VERTEX
  5
A6E
  8
FISHER___PAYKEL
 62
     7
 10
252.5541871873444
 20
56.37842128399996
 30
0.0
  0
VERTEX
  5
A6F
  8
FISHER___PAYKEL
 62
     7
 10
252.5669469732085
 20
56.21979483642835
 30
0.0
  0
VERTEX
  5
A70
  8
FISHER___PAYKEL
 62
     7
 10
252.5824902616513
 20
56.06179149358798
 30
0.0
  0
VERTEX
  5
A71
  8
FISHER___PAYKEL
 62
     7
 10
252.6007980777329
 20
55.90448109940685
 30
0.0
  0
VERTEX
  5
A72
  8
FISHER___PAYKEL
 62
     7
 10
252.6218514465132
 20
55.74793349781302
 30
0.0
  0
VERTEX
  5
A73
  8
FISHER___PAYKEL
 62
     7
 10
252.6456313930524
 20
55.59221853273448
 30
0.0
  0
VERTEX
  5
A74
  8
FISHER___PAYKEL
 62
     7
 10
252.6721189424103
 20
55.43740604809926
 30
0.0
  0
VERTEX
  5
A75
  8
FISHER___PAYKEL
 62
     7
 10
252.7012951196471
 20
55.28356588783538
 30
0.0
  0
VERTEX
  5
A76
  8
FISHER___PAYKEL
 62
     7
 10
252.7331409498227
 20
55.13076789587085
 30
0.0
  0
VERTEX
  5
A77
  8
FISHER___PAYKEL
 62
     7
 10
252.7676374579972
 20
54.97908191613369
 30
0.0
  0
VERTEX
  5
A78
  8
FISHER___PAYKEL
 62
     7
 10
252.8047656692305
 20
54.82857779255193
 30
0.0
  0
VERTEX
  5
A79
  8
FISHER___PAYKEL
 62
     7
 10
252.8445066085828
 20
54.67932536905359
 30
0.0
  0
VERTEX
  5
A7A
  8
FISHER___PAYKEL
 62
     7
 10
252.8868413011139
 20
54.53139448956668
 30
0.0
  0
VERTEX
  5
A7B
  8
FISHER___PAYKEL
 62
     7
 10
252.931750771884
 20
54.38485499801922
 30
0.0
  0
VERTEX
  5
A7C
  8
FISHER___PAYKEL
 62
     7
 10
252.9792160459531
 20
54.23977673833923
 30
0.0
  0
VERTEX
  5
A7D
  8
FISHER___PAYKEL
 62
     7
 10
253.0292181483811
 20
54.09622955445474
 30
0.0
  0
VERTEX
  5
A7E
  8
FISHER___PAYKEL
 62
     7
 10
253.0817381042281
 20
53.95428329029374
 30
0.0
  0
VERTEX
  5
A7F
  8
FISHER___PAYKEL
 62
     7
 10
253.1367569385541
 20
53.81400778978427
 30
0.0
  0
VERTEX
  5
A80
  8
FISHER___PAYKEL
 62
     7
 10
253.1942556764191
 20
53.67547289685436
 30
0.0
  0
VERTEX
  5
A81
  8
FISHER___PAYKEL
 62
     7
 10
253.2542153428832
 20
53.53874845543201
 30
0.0
  0
VERTEX
  5
A82
  8
FISHER___PAYKEL
 62
     7
 10
253.3166169630063
 20
53.40390430944525
 30
0.0
  0
VERTEX
  5
A83
  8
FISHER___PAYKEL
 62
     7
 10
253.3814415618485
 20
53.27101030282209
 30
0.0
  0
VERTEX
  5
A84
  8
FISHER___PAYKEL
 62
     7
 10
253.4486701644698
 20
53.14013627949057
 30
0.0
  0
VERTEX
  5
A85
  8
FISHER___PAYKEL
 62
     7
 10
253.5182837959302
 20
53.01135208337868
 30
0.0
  0
VERTEX
  5
A86
  8
FISHER___PAYKEL
 62
     7
 10
253.5902634812898
 20
52.88472755841447
 30
0.0
  0
VERTEX
  5
A87
  8
FISHER___PAYKEL
 62
     7
 10
253.6645902456084
 20
52.76033254852592
 30
0.0
  0
VERTEX
  5
A88
  8
FISHER___PAYKEL
 62
     7
 10
253.7412451139463
 20
52.63823689764109
 30
0.0
  0
VERTEX
  5
A89
  8
FISHER___PAYKEL
 62
     7
 10
253.8202091113633
 20
52.51851044968798
 30
0.0
  0
VERTEX
  5
A8A
  8
FISHER___PAYKEL
 62
     7
 10
253.9014632629195
 20
52.4012230485946
 30
0.0
  0
VERTEX
  5
A8B
  8
FISHER___PAYKEL
 62
     7
 10
253.9849885936749
 20
52.28644453828899
 30
0.0
  0
VERTEX
  5
A8C
  8
FISHER___PAYKEL
 62
     7
 10
254.0707661286896
 20
52.17424476269915
 30
0.0
  0
VERTEX
  5
A8D
  8
FISHER___PAYKEL
 62
     7
 10
254.1587768930236
 20
52.06469356575312
 30
0.0
  0
VERTEX
  5
A8E
  8
FISHER___PAYKEL
 62
     7
 10
254.2490019117368
 20
51.95786079137889
 30
0.0
  0
VERTEX
  5
A8F
  8
FISHER___PAYKEL
 62
     7
 10
254.3414222098893
 20
51.85381628350451
 30
0.0
  0
VERTEX
  5
A90
  8
FISHER___PAYKEL
 62
     7
 10
254.4360188125411
 20
51.75262988605799
 30
0.0
  0
VERTEX
  5
A91
  8
FISHER___PAYKEL
 62
     7
 10
254.5327727447523
 20
51.65437144296734
 30
0.0
  0
VERTEX
  5
A92
  8
FISHER___PAYKEL
 62
     7
 10
254.6316650315827
 20
51.55911079816057
 30
0.0
  0
VERTEX
  5
A93
  8
FISHER___PAYKEL
 62
     7
 10
254.7326766980926
 20
51.46691779556573
 30
0.0
  0
VERTEX
  5
A94
  8
FISHER___PAYKEL
 62
     7
 10
254.8357887693418
 20
51.37786227911081
 30
0.0
  0
VERTEX
  5
A95
  8
FISHER___PAYKEL
 62
     7
 10
254.9409822703904
 20
51.29201409272386
 30
0.0
  0
VERTEX
  5
A96
  8
FISHER___PAYKEL
 62
     7
 10
255.0482382262985
 20
51.20944308033287
 30
0.0
  0
VERTEX
  5
A97
  8
FISHER___PAYKEL
 62
     7
 10
255.1575376621259
 20
51.13021908586587
 30
0.0
  0
VERTEX
  5
A98
  8
FISHER___PAYKEL
 62
     7
 10
255.2688616029329
 20
51.05441195325088
 30
0.0
  0
VERTEX
  5
A99
  8
FISHER___PAYKEL
 62
     7
 10
255.3821910737793
 20
50.98209152641592
 30
0.0
  0
VERTEX
  5
A9A
  8
FISHER___PAYKEL
 62
     7
 10
255.4975070997252
 20
50.91332764928902
 30
0.0
  0
VERTEX
  5
A9B
  8
FISHER___PAYKEL
 62
     7
 10
255.6147907058306
 20
50.84819016579817
 30
0.0
  0
VERTEX
  5
A9C
  8
FISHER___PAYKEL
 62
     7
 10
255.7340229171555
 20
50.78674891987141
 30
0.0
  0
VERTEX
  5
A9D
  8
FISHER___PAYKEL
 62
     7
 10
255.8551847587599
 20
50.72907375543677
 30
0.0
  0
VERTEX
  5
A9E
  8
FISHER___PAYKEL
 62
     7
 10
255.978257255704
 20
50.67523451642225
 30
0.0
  0
VERTEX
  5
A9F
  8
FISHER___PAYKEL
 62
     7
 10
256.1032214330476
 20
50.62530104675587
 30
0.0
  0
VERTEX
  5
AA0
  8
FISHER___PAYKEL
 62
     7
 10
256.2300583158508
 20
50.57934319036566
 30
0.0
  0
VERTEX
  5
AA1
  8
FISHER___PAYKEL
 62
     7
 10
256.3587489291735
 20
50.53743079117962
 30
0.0
  0
VERTEX
  5
AA2
  8
FISHER___PAYKEL
 62
     7
 10
256.489274298076
 20
50.49963369312579
 30
0.0
  0
VERTEX
  5
AA3
  8
FISHER___PAYKEL
 62
     7
 10
256.6216154476181
 20
50.46602174013218
 30
0.0
  0
VERTEX
  5
AA4
  8
FISHER___PAYKEL
 62
     7
 10
256.7557534028599
 20
50.43666477612682
 30
0.0
  0
VERTEX
  5
AA5
  8
FISHER___PAYKEL
 62
     7
 10
256.8916691888613
 20
50.41163264503771
 30
0.0
  0
VERTEX
  5
AA6
  8
FISHER___PAYKEL
 62
     7
 10
257.0293438306824
 20
50.39099519079288
 30
0.0
  0
VERTEX
  5
AA7
  8
FISHER___PAYKEL
 62
     7
 10
257.1687583533833
 20
50.37482225732035
 30
0.0
  0
VERTEX
  5
AA8
  8
FISHER___PAYKEL
 62
     7
 10
257.3098937820239
 20
50.36318368854813
 30
0.0
  0
VERTEX
  5
AA9
  8
FISHER___PAYKEL
 62
     7
 10
257.4527311416642
 20
50.35614932840427
 30
0.0
  0
VERTEX
  5
AAA
  8
FISHER___PAYKEL
 62
     7
 10
257.5972514573643
 20
50.35378902081675
 30
0.0
  0
VERTEX
  5
AAB
  8
FISHER___PAYKEL
 62
     7
 10
257.7415782959637
 20
50.35611864552259
 30
0.0
  0
VERTEX
  5
AAC
  8
FISHER___PAYKEL
 62
     7
 10
257.8841671915494
 20
50.36306224893225
 30
0.0
  0
VERTEX
  5
AAD
  8
FISHER___PAYKEL
 62
     7
 10
258.0250010263035
 20
50.37455192498393
 30
0.0
  0
VERTEX
  5
AAE
  8
FISHER___PAYKEL
 62
     7
 10
258.1640626824077
 20
50.39051976761579
 30
0.0
  0
VERTEX
  5
AAF
  8
FISHER___PAYKEL
 62
     7
 10
258.3013350420438
 20
50.41089787076605
 30
0.0
  0
VERTEX
  5
AB0
  8
FISHER___PAYKEL
 62
     7
 10
258.4368009873936
 20
50.4356183283729
 30
0.0
  0
VERTEX
  5
AB1
  8
FISHER___PAYKEL
 62
     7
 10
258.5704434006389
 20
50.46461323437453
 30
0.0
  0
VERTEX
  5
AB2
  8
FISHER___PAYKEL
 62
     7
 10
258.7022451639614
 20
50.49781468270911
 30
0.0
  0
VERTEX
  5
AB3
  8
FISHER___PAYKEL
 62
     7
 10
258.8321891595431
 20
50.53515476731485
 30
0.0
  0
VERTEX
  5
AB4
  8
FISHER___PAYKEL
 62
     7
 10
258.9602582695658
 20
50.57656558212994
 30
0.0
  0
VERTEX
  5
AB5
  8
FISHER___PAYKEL
 62
     7
 10
259.0864353762111
 20
50.62197922109259
 30
0.0
  0
VERTEX
  5
AB6
  8
FISHER___PAYKEL
 62
     7
 10
259.210703361661
 20
50.67132777814096
 30
0.0
  0
VERTEX
  5
AB7
  8
FISHER___PAYKEL
 62
     7
 10
259.3330451080972
 20
50.72454334721326
 30
0.0
  0
VERTEX
  5
AB8
  8
FISHER___PAYKEL
 62
     7
 10
259.4534434977016
 20
50.78155802224767
 30
0.0
  0
VERTEX
  5
AB9
  8
FISHER___PAYKEL
 62
     7
 10
259.5718814126559
 20
50.84230389718239
 30
0.0
  0
VERTEX
  5
ABA
  8
FISHER___PAYKEL
 62
     7
 10
259.6883417351419
 20
50.90671306595561
 30
0.0
  0
VERTEX
  5
ABB
  8
FISHER___PAYKEL
 62
     7
 10
259.8028073473415
 20
50.97471762250553
 30
0.0
  0
VERTEX
  5
ABC
  8
FISHER___PAYKEL
 62
     7
 10
259.9152611314364
 20
51.04624966077033
 30
0.0
  0
VERTEX
  5
ABD
  8
FISHER___PAYKEL
 62
     7
 10
260.0256859696084
 20
51.12124127468821
 30
0.0
  0
VERTEX
  5
ABE
  8
FISHER___PAYKEL
 62
     7
 10
260.1340647440394
 20
51.19962455819735
 30
0.0
  0
VERTEX
  5
ABF
  8
FISHER___PAYKEL
 62
     7
 10
260.2403803369112
 20
51.28133160523595
 30
0.0
  0
VERTEX
  5
AC0
  8
FISHER___PAYKEL
 62
     7
 10
260.3446156304055
 20
51.3662945097422
 30
0.0
  0
VERTEX
  5
AC1
  8
FISHER___PAYKEL
 62
     7
 10
260.4467535067043
 20
51.45444536565431
 30
0.0
  0
VERTEX
  5
AC2
  8
FISHER___PAYKEL
 62
     7
 10
260.5467768479891
 20
51.54571626691043
 30
0.0
  0
VERTEX
  5
AC3
  8
FISHER___PAYKEL
 62
     7
 10
260.6446685364419
 20
51.64003930744879
 30
0.0
  0
VERTEX
  5
AC4
  8
FISHER___PAYKEL
 62
     7
 10
260.7404114542445
 20
51.73734658120756
 30
0.0
  0
VERTEX
  5
AC5
  8
FISHER___PAYKEL
 62
     7
 10
260.8339884835787
 20
51.83757018212495
 30
0.0
  0
VERTEX
  5
AC6
  8
FISHER___PAYKEL
 62
     7
 10
260.9253825066262
 20
51.94064220413913
 30
0.0
  0
VERTEX
  5
AC7
  8
FISHER___PAYKEL
 62
     7
 10
261.014576405569
 20
52.04649474118831
 30
0.0
  0
VERTEX
  5
AC8
  8
FISHER___PAYKEL
 62
     7
 10
261.1015530625887
 20
52.15505988721067
 30
0.0
  0
VERTEX
  5
AC9
  8
FISHER___PAYKEL
 62
     7
 10
261.1862953598672
 20
52.26626973614441
 30
0.0
  0
VERTEX
  5
ACA
  8
FISHER___PAYKEL
 62
     7
 10
261.2687861795863
 20
52.38005638192772
 30
0.0
  0
VERTEX
  5
ACB
  8
FISHER___PAYKEL
 62
     7
 10
261.3490084039278
 20
52.49635191849878
 30
0.0
  0
VERTEX
  5
ACC
  8
FISHER___PAYKEL
 62
     7
 10
261.4269449150735
 20
52.6150884397958
 30
0.0
  0
VERTEX
  5
ACD
  8
FISHER___PAYKEL
 62
     7
 10
261.5025785952051
 20
52.73619803975696
 30
0.0
  0
VERTEX
  5
ACE
  8
FISHER___PAYKEL
 62
     7
 10
261.5758923265047
 20
52.85961281232046
 30
0.0
  0
VERTEX
  5
ACF
  8
FISHER___PAYKEL
 62
     7
 10
261.6468689911538
 20
52.98526485142447
 30
0.0
  0
VERTEX
  5
AD0
  8
FISHER___PAYKEL
 62
     7
 10
261.7154914713344
 20
53.11308625100722
 30
0.0
  0
VERTEX
  5
AD1
  8
FISHER___PAYKEL
 62
     7
 10
261.7817426492281
 20
53.24300910500688
 30
0.0
  0
VERTEX
  5
AD2
  8
FISHER___PAYKEL
 62
     7
 10
261.8456054070169
 20
53.37496550736162
 30
0.0
  0
VERTEX
  5
AD3
  8
FISHER___PAYKEL
 62
     7
 10
261.9070626268824
 20
53.50888755200967
 30
0.0
  0
VERTEX
  5
AD4
  8
FISHER___PAYKEL
 62
     7
 10
261.9660971910067
 20
53.6447073328892
 30
0.0
  0
VERTEX
  5
AD5
  8
FISHER___PAYKEL
 62
     7
 10
262.0226919815713
 20
53.78235694393841
 30
0.0
  0
VERTEX
  5
AD6
  8
FISHER___PAYKEL
 62
     7
 10
262.0768298807582
 20
53.92176847909548
 30
0.0
  0
VERTEX
  5
AD7
  8
FISHER___PAYKEL
 62
     7
 10
262.1284937707492
 20
54.06287403229862
 30
0.0
  0
VERTEX
  5
AD8
  8
FISHER___PAYKEL
 62
     7
 10
262.1776665337259
 20
54.20560569748601
 30
0.0
  0
VERTEX
  5
AD9
  8
FISHER___PAYKEL
 62
     7
 10
262.2243310518703
 20
54.34989556859584
 30
0.0
  0
VERTEX
  5
ADA
  8
FISHER___PAYKEL
 62
     7
 10
262.2684702073641
 20
54.49567573956631
 30
0.0
  0
VERTEX
  5
ADB
  8
FISHER___PAYKEL
 62
     7
 10
262.3100668823893
 20
54.6428783043356
 30
0.0
  0
VERTEX
  5
ADC
  8
FISHER___PAYKEL
 62
     7
 10
262.3491039591274
 20
54.79143535684192
 30
0.0
  0
VERTEX
  5
ADD
  8
FISHER___PAYKEL
 62
     7
 10
262.3855643197604
 20
54.94127899102345
 30
0.0
  0
VERTEX
  5
ADE
  8
FISHER___PAYKEL
 62
     7
 10
262.41943084647
 20
55.09234130081837
 30
0.0
  0
VERTEX
  5
ADF
  8
FISHER___PAYKEL
 62
     7
 10
262.4506864214382
 20
55.24455438016489
 30
0.0
  0
VERTEX
  5
AE0
  8
FISHER___PAYKEL
 62
     7
 10
262.4793139268465
 20
55.39785032300119
 30
0.0
  0
VERTEX
  5
AE1
  8
FISHER___PAYKEL
 62
     7
 10
262.5052962448771
 20
55.55216122326549
 30
0.0
  0
VERTEX
  5
AE2
  8
FISHER___PAYKEL
 62
     7
 10
262.5286162577114
 20
55.70741917489593
 30
0.0
  0
VERTEX
  5
AE3
  8
FISHER___PAYKEL
 62
     7
 10
262.5492568475314
 20
55.86355627183075
 30
0.0
  0
VERTEX
  5
AE4
  8
FISHER___PAYKEL
 62
     7
 10
262.5672008965189
 20
56.02050460800811
 30
0.0
  0
VERTEX
  5
AE5
  8
FISHER___PAYKEL
 62
     7
 10
262.5824312868556
 20
56.17819627736623
 30
0.0
  0
VERTEX
  5
AE6
  8
FISHER___PAYKEL
 62
     7
 10
262.5949309007235
 20
56.33656337384327
 30
0.0
  0
VERTEX
  5
AE7
  8
FISHER___PAYKEL
 62
     7
 10
262.6046826203043
 20
56.49553799137745
 30
0.0
  0
VERTEX
  5
AE8
  8
FISHER___PAYKEL
 62
     7
 10
262.6116693277797
 20
56.65505222390694
 30
0.0
  0
VERTEX
  5
AE9
  8
FISHER___PAYKEL
 62
     7
 10
262.6158739053317
 20
56.81503816536994
 30
0.0
  0
SEQEND
  5
AEA
  8
FISHER___PAYKEL
 62
     7
  0
POLYLINE
  5
AEB
  8
FISHER___PAYKEL
 62
     7
 66
     1
 10
0.0
 20
0.0
 30
0.0
 70
     1
  0
VERTEX
  5
AEC
  8
FISHER___PAYKEL
 62
     7
 10
251.3742514573644
 20
56.97542790970465
 30
0.0
  0
VERTEX
  5
AED
  8
FISHER___PAYKEL
 62
     7
 10
251.3742514573644
 20
57.01776124303842
 30
0.0
  0
VERTEX
  5
AEE
  8
FISHER___PAYKEL
 62
     7
 10
251.3760174590657
 20
57.20870685806511
 30
0.0
  0
VERTEX
  5
AEF
  8
FISHER___PAYKEL
 62
     7
 10
251.3812997997513
 20
57.39884317171545
 30
0.0
  0
VERTEX
  5
AF0
  8
FISHER___PAYKEL
 62
     7
 10
251.3900749827932
 20
57.58809985559488
 30
0.0
  0
VERTEX
  5
AF1
  8
FISHER___PAYKEL
 62
     7
 10
251.4023195115636
 20
57.77640658130883
 30
0.0
  0
VERTEX
  5
AF2
  8
FISHER___PAYKEL
 62
     7
 10
251.4180098894348
 20
57.96369302046271
 30
0.0
  0
VERTEX
  5
AF3
  8
FISHER___PAYKEL
 62
     7
 10
251.4371226197789
 20
58.14988884466197
 30
0.0
  0
VERTEX
  5
AF4
  8
FISHER___PAYKEL
 62
     7
 10
251.4596342059682
 20
58.33492372551203
 30
0.0
  0
VERTEX
  5
AF5
  8
FISHER___PAYKEL
 62
     7
 10
251.4855211513748
 20
58.51872733461832
 30
0.0
  0
VERTEX
  5
AF6
  8
FISHER___PAYKEL
 62
     7
 10
251.5147599593709
 20
58.70122934358626
 30
0.0
  0
VERTEX
  5
AF7
  8
FISHER___PAYKEL
 62
     7
 10
251.5473271333287
 20
58.88235942402128
 30
0.0
  0
VERTEX
  5
AF8
  8
FISHER___PAYKEL
 62
     7
 10
251.5831991766204
 20
59.06204724752882
 30
0.0
  0
VERTEX
  5
AF9
  8
FISHER___PAYKEL
 62
     7
 10
251.6223525926183
 20
59.24022248571429
 30
0.0
  0
VERTEX
  5
AFA
  8
FISHER___PAYKEL
 62
     7
 10
251.6647638846944
 20
59.41681481018313
 30
0.0
  0
VERTEX
  5
AFB
  8
FISHER___PAYKEL
 62
     7
 10
251.710409556221
 20
59.59175389254077
 30
0.0
  0
VERTEX
  5
AFC
  8
FISHER___PAYKEL
 62
     7
 10
251.7592661105702
 20
59.76496940439263
 30
0.0
  0
VERTEX
  5
AFD
  8
FISHER___PAYKEL
 62
     7
 10
251.8113100511143
 20
59.93639101734414
 30
0.0
  0
VERTEX
  5
AFE
  8
FISHER___PAYKEL
 62
     7
 10
251.8665178812255
 20
60.10594840300072
 30
0.0
  0
VERTEX
  5
AFF
  8
FISHER___PAYKEL
 62
     7
 10
251.924866104276
 20
60.27357123296782
 30
0.0
  0
VERTEX
  5
B00
  8
FISHER___PAYKEL
 62
     7
 10
251.9863312236378
 20
60.43918917885085
 30
0.0
  0
VERTEX
  5
B01
  8
FISHER___PAYKEL
 62
     7
 10
252.0508897426833
 20
60.60273191225524
 30
0.0
  0
VERTEX
  5
B02
  8
FISHER___PAYKEL
 62
     7
 10
252.1185181647847
 20
60.76412910478643
 30
0.0
  0
VERTEX
  5
B03
  8
FISHER___PAYKEL
 62
     7
 10
252.189192993314
 20
60.92331042804983
 30
0.0
  0
VERTEX
  5
B04
  8
FISHER___PAYKEL
 62
     7
 10
252.2628907316436
 20
61.08020555365088
 30
0.0
  0
VERTEX
  5
B05
  8
FISHER___PAYKEL
 62
     7
 10
252.3395878831456
 20
61.23474415319501
 30
0.0
  0
VERTEX
  5
B06
  8
FISHER___PAYKEL
 62
     7
 10
252.4192609511921
 20
61.38685589828764
 30
0.0
  0
VERTEX
  5
B07
  8
FISHER___PAYKEL
 62
     7
 10
252.5018864391554
 20
61.5364704605342
 30
0.0
  0
VERTEX
  5
B08
  8
FISHER___PAYKEL
 62
     7
 10
252.5874408504078
 20
61.68351751154012
 30
0.0
  0
VERTEX
  5
B09
  8
FISHER___PAYKEL
 62
     7
 10
252.6759006883213
 20
61.82792672291082
 30
0.0
  0
VERTEX
  5
B0A
  8
FISHER___PAYKEL
 62
     7
 10
252.7672424562682
 20
61.96962776625175
 30
0.0
  0
VERTEX
  5
B0B
  8
FISHER___PAYKEL
 62
     7
 10
252.8614426576206
 20
62.10855031316831
 30
0.0
  0
VERTEX
  5
B0C
  8
FISHER___PAYKEL
 62
     7
 10
252.9584777957508
 20
62.24462403526594
 30
0.0
  0
VERTEX
  5
B0D
  8
FISHER___PAYKEL
 62
     7
 10
253.0583243740309
 20
62.37777860415008
 30
0.0
  0
VERTEX
  5
B0E
  8
FISHER___PAYKEL
 62
     7
 10
253.1609588958332
 20
62.50794369142614
 30
0.0
  0
VERTEX
  5
B0F
  8
FISHER___PAYKEL
 62
     7
 10
253.2663578645298
 20
62.63504896869956
 30
0.0
  0
VERTEX
  5
B10
  8
FISHER___PAYKEL
 62
     7
 10
253.3744977834929
 20
62.75902410757575
 30
0.0
  0
VERTEX
  5
B11
  8
FISHER___PAYKEL
 62
     7
 10
253.4853551560947
 20
62.87979877966017
 30
0.0
  0
VERTEX
  5
B12
  8
FISHER___PAYKEL
 62
     7
 10
253.5989064857074
 20
62.99730265655822
 30
0.0
  0
VERTEX
  5
B13
  8
FISHER___PAYKEL
 62
     7
 10
253.7151282757033
 20
63.11146540987534
 30
0.0
  0
VERTEX
  5
B14
  8
FISHER___PAYKEL
 62
     7
 10
253.8339970294544
 20
63.22221671121694
 30
0.0
  0
VERTEX
  5
B15
  8
FISHER___PAYKEL
 62
     7
 10
253.955489250333
 20
63.32948623218849
 30
0.0
  0
VERTEX
  5
B16
  8
FISHER___PAYKEL
 62
     7
 10
254.0795814417112
 20
63.43320364439538
 30
0.0
  0
VERTEX
  5
B17
  8
FISHER___PAYKEL
 62
     7
 10
254.2062501069614
 20
63.53329861944304
 30
0.0
  0
VERTEX
  5
B18
  8
FISHER___PAYKEL
 62
     7
 10
254.3354717494556
 20
63.62970082893691
 30
0.0
  0
VERTEX
  5
B19
  8
FISHER___PAYKEL
 62
     7
 10
254.467222872566
 20
63.72233994448242
 30
0.0
  0
VERTEX
  5
B1A
  8
FISHER___PAYKEL
 62
     7
 10
254.6014799796649
 20
63.81114563768499
 30
0.0
  0
VERTEX
  5
B1B
  8
FISHER___PAYKEL
 62
     7
 10
254.7382195741245
 20
63.89604758015005
 30
0.0
  0
VERTEX
  5
B1C
  8
FISHER___PAYKEL
 62
     7
 10
254.8774181593168
 20
63.97697544348304
 30
0.0
  0
VERTEX
  5
B1D
  8
FISHER___PAYKEL
 62
     7
 10
255.0190522386142
 20
64.05385889928937
 30
0.0
  0
VERTEX
  5
B1E
  8
FISHER___PAYKEL
 62
     7
 10
255.1630983153888
 20
64.12662761917446
 30
0.0
  0
VERTEX
  5
B1F
  8
FISHER___PAYKEL
 62
     7
 10
255.3095328930128
 20
64.19521127474377
 30
0.0
  0
VERTEX
  5
B20
  8
FISHER___PAYKEL
 62
     7
 10
255.4583324748585
 20
64.25953953760272
 30
0.0
  0
VERTEX
  5
B21
  8
FISHER___PAYKEL
 62
     7
 10
255.6094735642978
 20
64.31954207935671
 30
0.0
  0
VERTEX
  5
B22
  8
FISHER___PAYKEL
 62
     7
 10
255.7629326647032
 20
64.37514857161119
 30
0.0
  0
VERTEX
  5
B23
  8
FISHER___PAYKEL
 62
     7
 10
255.9186862794468
 20
64.4262886859716
 30
0.0
  0
VERTEX
  5
B24
  8
FISHER___PAYKEL
 62
     7
 10
256.0767109119007
 20
64.47289209404335
 30
0.0
  0
VERTEX
  5
B25
  8
FISHER___PAYKEL
 62
     7
 10
256.2369830654372
 20
64.51488846743186
 30
0.0
  0
VERTEX
  5
B26
  8
FISHER___PAYKEL
 62
     7
 10
256.3994792434284
 20
64.55220747774257
 30
0.0
  0
VERTEX
  5
B27
  8
FISHER___PAYKEL
 62
     7
 10
256.5641759492466
 20
64.5847787965809
 30
0.0
  0
VERTEX
  5
B28
  8
FISHER___PAYKEL
 62
     7
 10
256.7310496862639
 20
64.6125320955523
 30
0.0
  0
VERTEX
  5
B29
  8
FISHER___PAYKEL
 62
     7
 10
256.9000769578525
 20
64.63539704626218
 30
0.0
  0
VERTEX
  5
B2A
  8
FISHER___PAYKEL
 62
     7
 10
257.0712342673847
 20
64.65330332031598
 30
0.0
  0
VERTEX
  5
B2B
  8
FISHER___PAYKEL
 62
     7
 10
257.2444981182326
 20
64.66618058931911
 30
0.0
  0
VERTEX
  5
B2C
  8
FISHER___PAYKEL
 62
     7
 10
257.4198450137684
 20
64.67395852487701
 30
0.0
  0
VERTEX
  5
B2D
  8
FISHER___PAYKEL
 62
     7
 10
257.5972514573643
 20
64.6765667985951
 30
0.0
  0
VERTEX
  5
B2E
  8
FISHER___PAYKEL
 62
     7
 10
257.7744618669526
 20
64.67398920775868
 30
0.0
  0
VERTEX
  5
B2F
  8
FISHER___PAYKEL
 62
     7
 10
257.9495527353726
 20
64.666302028935
 30
0.0
  0
VERTEX
  5
B30
  8
FISHER___PAYKEL
 62
     7
 10
258.1225025846073
 20
64.6535736526524
 30
0.0
  0
VERTEX
  5
B31
  8
FISHER___PAYKEL
 62
     7
 10
258.2932899366394
 20
64.63587246943928
 30
0.0
  0
VERTEX
  5
B32
  8
FISHER___PAYKEL
 62
     7
 10
258.4618933134518
 20
64.61326686982397
 30
0.0
  0
VERTEX
  5
B33
  8
FISHER___PAYKEL
 62
     7
 10
258.6282912370273
 20
64.58582524433484
 30
0.0
  0
VERTEX
  5
B34
  8
FISHER___PAYKEL
 62
     7
 10
258.7924622293486
 20
64.55361598350024
 30
0.0
  0
VERTEX
  5
B35
  8
FISHER___PAYKEL
 62
     7
 10
258.9543848123989
 20
64.51670747784854
 30
0.0
  0
VERTEX
  5
B36
  8
FISHER___PAYKEL
 62
     7
 10
259.1140375081607
 20
64.47516811790811
 30
0.0
  0
VERTEX
  5
B37
  8
FISHER___PAYKEL
 62
     7
 10
259.2713988386168
 20
64.42906629420729
 30
0.0
  0
VERTEX
  5
B38
  8
FISHER___PAYKEL
 62
     7
 10
259.4264473257502
 20
64.37847039727447
 30
0.0
  0
VERTEX
  5
B39
  8
FISHER___PAYKEL
 62
     7
 10
259.5791614915437
 20
64.323448817638
 30
0.0
  0
VERTEX
  5
B3A
  8
FISHER___PAYKEL
 62
     7
 10
259.7295198579802
 20
64.26406994582624
 30
0.0
  0
VERTEX
  5
B3B
  8
FISHER___PAYKEL
 62
     7
 10
259.8775009470423
 20
64.20040217236752
 30
0.0
  0
VERTEX
  5
B3C
  8
FISHER___PAYKEL
 62
     7
 10
260.023083280713
 20
64.13251388779022
 30
0.0
  0
VERTEX
  5
B3D
  8
FISHER___PAYKEL
 62
     7
 10
260.1662453809752
 20
64.06047348262275
 30
0.0
  0
VERTEX
  5
B3E
  8
FISHER___PAYKEL
 62
     7
 10
260.3069657698115
 20
63.98434934739341
 30
0.0
  0
VERTEX
  5
B3F
  8
FISHER___PAYKEL
 62
     7
 10
260.4452229692049
 20
63.90420987263059
 30
0.0
  0
VERTEX
  5
B40
  8
FISHER___PAYKEL
 62
     7
 10
260.5809955011381
 20
63.82012344886263
 30
0.0
  0
VERTEX
  5
B41
  8
FISHER___PAYKEL
 62
     7
 10
260.7142618875941
 20
63.7321584666179
 30
0.0
  0
VERTEX
  5
B42
  8
FISHER___PAYKEL
 62
     7
 10
260.8450006505556
 20
63.64038331642477
 30
0.0
  0
VERTEX
  5
B43
  8
FISHER___PAYKEL
 62
     7
 10
260.9731903120054
 20
63.54486638881161
 30
0.0
  0
VERTEX
  5
B44
  8
FISHER___PAYKEL
 62
     7
 10
261.0988093939264
 20
63.44567607430675
 30
0.0
  0
VERTEX
  5
B45
  8
FISHER___PAYKEL
 62
     7
 10
261.2218364183016
 20
63.34288076343857
 30
0.0
  0
VERTEX
  5
B46
  8
FISHER___PAYKEL
 62
     7
 10
261.3422499071135
 20
63.23654884673543
 30
0.0
  0
VERTEX
  5
B47
  8
FISHER___PAYKEL
 62
     7
 10
261.4600283823451
 20
63.12674871472569
 30
0.0
  0
VERTEX
  5
B48
  8
FISHER___PAYKEL
 62
     7
 10
261.5751503659793
 20
63.01354875793771
 30
0.0
  0
VERTEX
  5
B49
  8
FISHER___PAYKEL
 62
     7
 10
261.6875943799987
 20
62.89701736689986
 30
0.0
  0
VERTEX
  5
B4A
  8
FISHER___PAYKEL
 62
     7
 10
261.7973389463863
 20
62.77722293214048
 30
0.0
  0
VERTEX
  5
B4B
  8
FISHER___PAYKEL
 62
     7
 10
261.9043625871249
 20
62.65423384418794
 30
0.0
  0
VERTEX
  5
B4C
  8
FISHER___PAYKEL
 62
     7
 10
262.0086438241973
 20
62.52811849357062
 30
0.0
  0
VERTEX
  5
B4D
  8
FISHER___PAYKEL
 62
     7
 10
262.1101611795864
 20
62.39894527081685
 30
0.0
  0
VERTEX
  5
B4E
  8
FISHER___PAYKEL
 62
     7
 10
262.208893175275
 20
62.26678256645501
 30
0.0
  0
VERTEX
  5
B4F
  8
FISHER___PAYKEL
 62
     7
 10
262.3048183332458
 20
62.13169877101347
 30
0.0
  0
VERTEX
  5
B50
  8
FISHER___PAYKEL
 62
     7
 10
262.3979151754818
 20
61.99376227502057
 30
0.0
  0
VERTEX
  5
B51
  8
FISHER___PAYKEL
 62
     7
 10
262.4881622239658
 20
61.85304146900468
 30
0.0
  0
VERTEX
  5
B52
  8
FISHER___PAYKEL
 62
     7
 10
262.5755380006805
 20
61.70960474349415
 30
0.0
  0
VERTEX
  5
B53
  8
FISHER___PAYKEL
 62
     7
 10
262.6600210276089
 20
61.56352048901736
 30
0.0
  0
VERTEX
  5
B54
  8
FISHER___PAYKEL
 62
     7
 10
262.7415898267337
 20
61.41485709610267
 30
0.0
  0
VERTEX
  5
B55
  8
FISHER___PAYKEL
 62
     7
 10
262.8202229200379
 20
61.26368295527843
 30
0.0
  0
VERTEX
  5
B56
  8
FISHER___PAYKEL
 62
     7
 10
262.8958988295042
 20
61.110066457073
 30
0.0
  0
VERTEX
  5
B57
  8
FISHER___PAYKEL
 62
     7
 10
262.9685960771153
 20
60.95407599201474
 30
0.0
  0
VERTEX
  5
B58
  8
FISHER___PAYKEL
 62
     7
 10
263.0382931848543
 20
60.79577995063202
 30
0.0
  0
VERTEX
  5
B59
  8
FISHER___PAYKEL
 62
     7
 10
263.1049686747037
 20
60.63524672345321
 30
0.0
  0
VERTEX
  5
B5A
  8
FISHER___PAYKEL
 62
     7
 10
263.1686010686468
 20
60.47254470100664
 30
0.0
  0
VERTEX
  5
B5B
  8
FISHER___PAYKEL
 62
     7
 10
263.2291688886659
 20
60.30774227382071
 30
0.0
  0
VERTEX
  5
B5C
  8
FISHER___PAYKEL
 62
     7
 10
263.2866506567442
 20
60.14090783242374
 30
0.0
  0
VERTEX
  5
B5D
  8
FISHER___PAYKEL
 62
     7
 10
263.3410248948644
 20
59.97210976734412
 30
0.0
  0
VERTEX
  5
B5E
  8
FISHER___PAYKEL
 62
     7
 10
263.3922701250094
 20
59.8014164691102
 30
0.0
  0
VERTEX
  5
B5F
  8
FISHER___PAYKEL
 62
     7
 10
263.4403648691618
 20
59.62889632825035
 30
0.0
  0
VERTEX
  5
B60
  8
FISHER___PAYKEL
 62
     7
 10
263.4852876493047
 20
59.45461773529293
 30
0.0
  0
VERTEX
  5
B61
  8
FISHER___PAYKEL
 62
     7
 10
263.5270169874209
 20
59.27864908076629
 30
0.0
  0
VERTEX
  5
B62
  8
FISHER___PAYKEL
 62
     7
 10
263.5655314054931
 20
59.10105875519879
 30
0.0
  0
VERTEX
  5
B63
  8
FISHER___PAYKEL
 62
     7
 10
263.6008094255041
 20
58.9219151491188
 30
0.0
  0
VERTEX
  5
B64
  8
FISHER___PAYKEL
 62
     7
 10
263.6328295694369
 20
58.74128665305469
 30
0.0
  0
VERTEX
  5
B65
  8
FISHER___PAYKEL
 62
     7
 10
263.6615703592742
 20
58.5592416575348
 30
0.0
  0
VERTEX
  5
B66
  8
FISHER___PAYKEL
 62
     7
 10
263.6870103169989
 20
58.37584855308751
 30
0.0
  0
VERTEX
  5
B67
  8
FISHER___PAYKEL
 62
     7
 10
263.7091279645938
 20
58.19117573024116
 30
0.0
  0
VERTEX
  5
B68
  8
FISHER___PAYKEL
 62
     7
 10
263.7279018240417
 20
58.00529157952413
 30
0.0
  0
VERTEX
  5
B69
  8
FISHER___PAYKEL
 62
     7
 10
263.7433104173255
 20
57.81826449146476
 30
0.0
  0
VERTEX
  5
B6A
  8
FISHER___PAYKEL
 62
     7
 10
263.7553322664279
 20
57.63016285659144
 30
0.0
  0
VERTEX
  5
B6B
  8
FISHER___PAYKEL
 62
     7
 10
263.7639458933319
 20
57.44105506543251
 30
0.0
  0
VERTEX
  5
B6C
  8
FISHER___PAYKEL
 62
     7
 10
263.7691298200202
 20
57.25100950851633
 30
0.0
  0
VERTEX
  5
B6D
  8
FISHER___PAYKEL
 62
     7
 10
263.7708625684756
 20
57.06009457637128
 30
0.0
  0
VERTEX
  5
B6E
  8
FISHER___PAYKEL
 62
     7
 10
263.7708625684756
 20
57.01776124303842
 30
0.0
  0
VERTEX
  5
B6F
  8
FISHER___PAYKEL
 62
     7
 10
263.7690991236811
 20
56.82665539069941
 30
0.0
  0
VERTEX
  5
B70
  8
FISHER___PAYKEL
 62
     7
 10
263.7638243460568
 20
56.63636893278994
 30
0.0
  0
VERTEX
  5
B71
  8
FISHER___PAYKEL
 62
     7
 10
263.7550615707416
 20
56.44697195547128
 30
0.0
  0
VERTEX
  5
B72
  8
FISHER___PAYKEL
 62
     7
 10
263.7428341328745
 20
56.25853454490473
 30
0.0
  0
VERTEX
  5
B73
  8
FISHER___PAYKEL
 62
     7
 10
263.7271653675945
 20
56.07112678725161
 30
0.0
  0
VERTEX
  5
B74
  8
FISHER___PAYKEL
 62
     7
 10
263.7080786100406
 20
55.88481876867319
 30
0.0
  0
VERTEX
  5
B75
  8
FISHER___PAYKEL
 62
     7
 10
263.6855971953516
 20
55.69968057533077
 30
0.0
  0
VERTEX
  5
B76
  8
FISHER___PAYKEL
 62
     7
 10
263.6597444586666
 20
55.51578229338566
 30
0.0
  0
VERTEX
  5
B77
  8
FISHER___PAYKEL
 62
     7
 10
263.6305437351245
 20
55.33319400899913
 30
0.0
  0
VERTEX
  5
B78
  8
FISHER___PAYKEL
 62
     7
 10
263.5980183598642
 20
55.1519858083325
 30
0.0
  0
VERTEX
  5
B79
  8
FISHER___PAYKEL
 62
     7
 10
263.5621916680249
 20
54.97222777754705
 30
0.0
  0
VERTEX
  5
B7A
  8
FISHER___PAYKEL
 62
     7
 10
263.5230869947451
 20
54.79399000280409
 30
0.0
  0
VERTEX
  5
B7B
  8
FISHER___PAYKEL
 62
     7
 10
263.4807276751642
 20
54.6173425702649
 30
0.0
  0
VERTEX
  5
B7C
  8
FISHER___PAYKEL
 62
     7
 10
263.4351370444209
 20
54.44235556609078
 30
0.0
  0
VERTEX
  5
B7D
  8
FISHER___PAYKEL
 62
     7
 10
263.3863384376543
 20
54.26909907644303
 30
0.0
  0
VERTEX
  5
B7E
  8
FISHER___PAYKEL
 62
     7
 10
263.3343551900034
 20
54.09764318748294
 30
0.0
  0
VERTEX
  5
B7F
  8
FISHER___PAYKEL
 62
     7
 10
263.2792106366069
 20
53.92805798537182
 30
0.0
  0
VERTEX
  5
B80
  8
FISHER___PAYKEL
 62
     7
 10
263.220928112604
 20
53.76041355627095
 30
0.0
  0
VERTEX
  5
B81
  8
FISHER___PAYKEL
 62
     7
 10
263.1595309531335
 20
53.59477998634162
 30
0.0
  0
VERTEX
  5
B82
  8
FISHER___PAYKEL
 62
     7
 10
263.0950424933345
 20
53.43122736174515
 30
0.0
  0
VERTEX
  5
B83
  8
FISHER___PAYKEL
 62
     7
 10
263.0274860683458
 20
53.26982576864282
 30
0.0
  0
VERTEX
  5
B84
  8
FISHER___PAYKEL
 62
     7
 10
262.9568850133065
 20
53.11064529319592
 30
0.0
  0
VERTEX
  5
B85
  8
FISHER___PAYKEL
 62
     7
 10
262.8832626633555
 20
52.95375602156575
 30
0.0
  0
VERTEX
  5
B86
  8
FISHER___PAYKEL
 62
     7
 10
262.8066423536317
 20
52.79922803991361
 30
0.0
  0
VERTEX
  5
B87
  8
FISHER___PAYKEL
 62
     7
 10
262.7270474192742
 20
52.64713143440079
 30
0.0
  0
VERTEX
  5
B88
  8
FISHER___PAYKEL
 62
     7
 10
262.6445011954218
 20
52.4975362911886
 30
0.0
  0
VERTEX
  5
B89
  8
FISHER___PAYKEL
 62
     7
 10
262.5590270172135
 20
52.35051269643832
 30
0.0
  0
VERTEX
  5
B8A
  8
FISHER___PAYKEL
 62
     7
 10
262.4706482197884
 20
52.20613073631124
 30
0.0
  0
VERTEX
  5
B8B
  8
FISHER___PAYKEL
 62
     7
 10
262.3793881382852
 20
52.06446049696868
 30
0.0
  0
VERTEX
  5
B8C
  8
FISHER___PAYKEL
 62
     7
 10
262.2852701078431
 20
51.92557206457191
 30
0.0
  0
VERTEX
  5
B8D
  8
FISHER___PAYKEL
 62
     7
 10
262.1883174636009
 20
51.78953552528224
 30
0.0
  0
VERTEX
  5
B8E
  8
FISHER___PAYKEL
 62
     7
 10
262.0885535406976
 20
51.65642096526096
 30
0.0
  0
VERTEX
  5
B8F
  8
FISHER___PAYKEL
 62
     7
 10
261.9860016742722
 20
51.52629847066937
 30
0.0
  0
VERTEX
  5
B90
  8
FISHER___PAYKEL
 62
     7
 10
261.8806851994636
 20
51.39923812766877
 30
0.0
  0
VERTEX
  5
B91
  8
FISHER___PAYKEL
 62
     7
 10
261.7726274514108
 20
51.27531002242044
 30
0.0
  0
VERTEX
  5
B92
  8
FISHER___PAYKEL
 62
     7
 10
261.6618517652527
 20
51.15458424108569
 30
0.0
  0
VERTEX
  5
B93
  8
FISHER___PAYKEL
 62
     7
 10
261.5483814761283
 20
51.0371308698258
 30
0.0
  0
VERTEX
  5
B94
  8
FISHER___PAYKEL
 62
     7
 10
261.4322399191765
 20
50.92301999480208
 30
0.0
  0
VERTEX
  5
B95
  8
FISHER___PAYKEL
 62
     7
 10
261.3134504295364
 20
50.81232170217582
 30
0.0
  0
VERTEX
  5
B96
  8
FISHER___PAYKEL
 62
     7
 10
261.1920363423468
 20
50.70510607810832
 30
0.0
  0
VERTEX
  5
B97
  8
FISHER___PAYKEL
 62
     7
 10
261.0680209927467
 20
50.60144320876087
 30
0.0
  0
VERTEX
  5
B98
  8
FISHER___PAYKEL
 62
     7
 10
260.9414277158751
 20
50.50140318029477
 30
0.0
  0
VERTEX
  5
B99
  8
FISHER___PAYKEL
 62
     7
 10
260.812279846871
 20
50.40505607887131
 30
0.0
  0
VERTEX
  5
B9A
  8
FISHER___PAYKEL
 62
     7
 10
260.6806007208732
 20
50.31247199065179
 30
0.0
  0
VERTEX
  5
B9B
  8
FISHER___PAYKEL
 62
     7
 10
260.5464136730208
 20
50.2237210017975
 30
0.0
  0
VERTEX
  5
B9C
  8
FISHER___PAYKEL
 62
     7
 10
260.4097420384526
 20
50.13887319846974
 30
0.0
  0
VERTEX
  5
B9D
  8
FISHER___PAYKEL
 62
     7
 10
260.2706091523078
 20
50.0579986668298
 30
0.0
  0
VERTEX
  5
B9E
  8
FISHER___PAYKEL
 62
     7
 10
260.1290383497251
 20
49.981167493039
 30
0.0
  0
VERTEX
  5
B9F
  8
FISHER___PAYKEL
 62
     7
 10
259.9850529658437
 20
49.9084497632586
 30
0.0
  0
VERTEX
  5
BA0
  8
FISHER___PAYKEL
 62
     7
 10
259.8386763358023
 20
49.83991556364992
 30
0.0
  0
VERTEX
  5
BA1
  8
FISHER___PAYKEL
 62
     7
 10
259.6899317947401
 20
49.77563498037424
 30
0.0
  0
VERTEX
  5
BA2
  8
FISHER___PAYKEL
 62
     7
 10
259.5388426777959
 20
49.71567809959286
 30
0.0
  0
VERTEX
  5
BA3
  8
FISHER___PAYKEL
 62
     7
 10
259.3854323201086
 20
49.66011500746708
 30
0.0
  0
VERTEX
  5
BA4
  8
FISHER___PAYKEL
 62
     7
 10
259.2297240568173
 20
49.6090157901582
 30
0.0
  0
VERTEX
  5
BA5
  8
FISHER___PAYKEL
 62
     7
 10
259.071741223061
 20
49.56245053382752
 30
0.0
  0
VERTEX
  5
BA6
  8
FISHER___PAYKEL
 62
     7
 10
258.9115071539785
 20
49.5204893246363
 30
0.0
  0
VERTEX
  5
BA7
  8
FISHER___PAYKEL
 62
     7
 10
258.7490451847088
 20
49.48320224874587
 30
0.0
  0
VERTEX
  5
BA8
  8
FISHER___PAYKEL
 62
     7
 10
258.5843786503909
 20
49.45065939231753
 30
0.0
  0
VERTEX
  5
BA9
  8
FISHER___PAYKEL
 62
     7
 10
258.4175308861638
 20
49.42293084151255
 30
0.0
  0
VERTEX
  5
BAA
  8
FISHER___PAYKEL
 62
     7
 10
258.2485252271664
 20
49.40008668249223
 30
0.0
  0
VERTEX
  5
BAB
  8
FISHER___PAYKEL
 62
     7
 10
258.0773850085376
 20
49.38219700141788
 30
0.0
  0
VERTEX
  5
BAC
  8
FISHER___PAYKEL
 62
     7
 10
257.9041335654164
 20
49.36933188445079
 30
0.0
  0
VERTEX
  5
BAD
  8
FISHER___PAYKEL
 62
     7
 10
257.7287942329418
 20
49.36156141775225
 30
0.0
  0
VERTEX
  5
BAE
  8
FISHER___PAYKEL
 62
     7
 10
257.5513903462527
 20
49.35895568748356
 30
0.0
  0
VERTEX
  5
BAF
  8
FISHER___PAYKEL
 62
     7
 10
257.3741773797576
 20
49.36153073487058
 30
0.0
  0
VERTEX
  5
BB0
  8
FISHER___PAYKEL
 62
     7
 10
257.1990789482763
 20
49.36921044483491
 30
0.0
  0
VERTEX
  5
BB1
  8
FISHER___PAYKEL
 62
     7
 10
257.0261166913149
 20
49.38192666908146
 30
0.0
  0
VERTEX
  5
BB2
  8
FISHER___PAYKEL
 62
     7
 10
256.8553122483794
 20
49.39961125931515
 30
0.0
  0
VERTEX
  5
BB3
  8
FISHER___PAYKEL
 62
     7
 10
256.6866872589758
 20
49.4221960672409
 30
0.0
  0
VERTEX
  5
BB4
  8
FISHER___PAYKEL
 62
     7
 10
256.5202633626101
 20
49.44961294456363
 30
0.0
  0
VERTEX
  5
BB5
  8
FISHER___PAYKEL
 62
     7
 10
256.3560621987883
 20
49.48179374298823
 30
0.0
  0
VERTEX
  5
BB6
  8
FISHER___PAYKEL
 62
     7
 10
256.1941054070165
 20
49.51867031421965
 30
0.0
  0
VERTEX
  5
BB7
  8
FISHER___PAYKEL
 62
     7
 10
256.0344146268008
 20
49.56017450996279
 30
0.0
  0
VERTEX
  5
BB8
  8
FISHER___PAYKEL
 62
     7
 10
255.877011497647
 20
49.60623818192256
 30
0.0
  0
VERTEX
  5
BB9
  8
FISHER___PAYKEL
 62
     7
 10
255.7219176590613
 20
49.65679318180387
 30
0.0
  0
VERTEX
  5
BBA
  8
FISHER___PAYKEL
 62
     7
 10
255.5691547505496
 20
49.71177136131165
 30
0.0
  0
VERTEX
  5
BBB
  8
FISHER___PAYKEL
 62
     7
 10
255.418744411618
 20
49.7711045721508
 30
0.0
  0
VERTEX
  5
BBC
  8
FISHER___PAYKEL
 62
     7
 10
255.2707082817724
 20
49.83472466602626
 30
0.0
  0
VERTEX
  5
BBD
  8
FISHER___PAYKEL
 62
     7
 10
255.125068000519
 20
49.90256349464293
 30
0.0
  0
VERTEX
  5
BBE
  8
FISHER___PAYKEL
 62
     7
 10
254.9818452073638
 20
49.97455290970572
 30
0.0
  0
VERTEX
  5
BBF
  8
FISHER___PAYKEL
 62
     7
 10
254.8410615418127
 20
50.05062476291955
 30
0.0
  0
VERTEX
  5
BC0
  8
FISHER___PAYKEL
 62
     7
 10
254.7027386433718
 20
50.13071090598935
 30
0.0
  0
VERTEX
  5
BC1
  8
FISHER___PAYKEL
 62
     7
 10
254.5668981515472
 20
50.21474319062
 30
0.0
  0
VERTEX
  5
BC2
  8
FISHER___PAYKEL
 62
     7
 10
254.4335617058447
 20
50.30265346851645
 30
0.0
  0
VERTEX
  5
BC3
  8
FISHER___PAYKEL
 62
     7
 10
254.3027509457706
 20
50.3943735913836
 30
0.0
  0
VERTEX
  5
BC4
  8
FISHER___PAYKEL
 62
     7
 10
254.1744875108307
 20
50.48983541092637
 30
0.0
  0
VERTEX
  5
BC5
  8
FISHER___PAYKEL
 62
     7
 10
254.0487930405311
 20
50.58897077884967
 30
0.0
  0
VERTEX
  5
BC6
  8
FISHER___PAYKEL
 62
     7
 10
253.9256891743778
 20
50.69171154685842
 30
0.0
  0
VERTEX
  5
BC7
  8
FISHER___PAYKEL
 62
     7
 10
253.8051975518769
 20
50.79798956665753
 30
0.0
  0
VERTEX
  5
BC8
  8
FISHER___PAYKEL
 62
     7
 10
253.6873398125343
 20
50.90773668995193
 30
0.0
  0
VERTEX
  5
BC9
  8
FISHER___PAYKEL
 62
     7
 10
253.5721375958561
 20
51.02088476844652
 30
0.0
  0
VERTEX
  5
BCA
  8
FISHER___PAYKEL
 62
     7
 10
253.4596125413483
 20
51.13736565384622
 30
0.0
  0
VERTEX
  5
BCB
  8
FISHER___PAYKEL
 62
     7
 10
253.349786288517
 20
51.25711119785594
 30
0.0
  0
VERTEX
  5
BCC
  8
FISHER___PAYKEL
 62
     7
 10
253.2426804768681
 20
51.3800532521806
 30
0.0
  0
VERTEX
  5
BCD
  8
FISHER___PAYKEL
 62
     7
 10
253.1383167459077
 20
51.50612366852512
 30
0.0
  0
VERTEX
  5
BCE
  8
FISHER___PAYKEL
 62
     7
 10
253.0367167351418
 20
51.63525429859442
 30
0.0
  0
VERTEX
  5
BCF
  8
FISHER___PAYKEL
 62
     7
 10
252.9379020840764
 20
51.7673769940934
 30
0.0
  0
VERTEX
  5
BD0
  8
FISHER___PAYKEL
 62
     7
 10
252.8418944322175
 20
51.90242360672698
 30
0.0
  0
VERTEX
  5
BD1
  8
FISHER___PAYKEL
 62
     7
 10
252.7487154190713
 20
52.04032598820007
 30
0.0
  0
VERTEX
  5
BD2
  8
FISHER___PAYKEL
 62
     7
 10
252.6583866841436
 20
52.18101599021761
 30
0.0
  0
VERTEX
  5
BD3
  8
FISHER___PAYKEL
 62
     7
 10
252.5709298669405
 20
52.32442546448449
 30
0.0
  0
VERTEX
  5
BD4
  8
FISHER___PAYKEL
 62
     7
 10
252.4863666069681
 20
52.47048626270563
 30
0.0
  0
VERTEX
  5
BD5
  8
FISHER___PAYKEL
 62
     7
 10
252.4047185437323
 20
52.61913023658595
 30
0.0
  0
VERTEX
  5
BD6
  8
FISHER___PAYKEL
 62
     7
 10
252.3260073167392
 20
52.77028923783038
 30
0.0
  0
VERTEX
  5
BD7
  8
FISHER___PAYKEL
 62
     7
 10
252.2502545654947
 20
52.92389511814381
 30
0.0
  0
VERTEX
  5
BD8
  8
FISHER___PAYKEL
 62
     7
 10
252.177481929505
 20
53.07987972923116
 30
0.0
  0
VERTEX
  5
BD9
  8
FISHER___PAYKEL
 62
     7
 10
252.107711048276
 20
53.23817492279735
 30
0.0
  0
VERTEX
  5
BDA
  8
FISHER___PAYKEL
 62
     7
 10
252.0409635613138
 20
53.3987125505473
 30
0.0
  0
VERTEX
  5
BDB
  8
FISHER___PAYKEL
 62
     7
 10
251.9772611081244
 20
53.56142446418592
 30
0.0
  0
VERTEX
  5
BDC
  8
FISHER___PAYKEL
 62
     7
 10
251.9166253282139
 20
53.72624251541812
 30
0.0
  0
VERTEX
  5
BDD
  8
FISHER___PAYKEL
 62
     7
 10
251.8590778610881
 20
53.89309855594883
 30
0.0
  0
VERTEX
  5
BDE
  8
FISHER___PAYKEL
 62
     7
 10
251.8046403462532
 20
54.06192443748296
 30
0.0
  0
VERTEX
  5
BDF
  8
FISHER___PAYKEL
 62
     7
 10
251.7533344232151
 20
54.23265201172541
 30
0.0
  0
VERTEX
  5
BE0
  8
FISHER___PAYKEL
 62
     7
 10
251.70518173148
 20
54.40521313038112
 30
0.0
  0
VERTEX
  5
BE1
  8
FISHER___PAYKEL
 62
     7
 10
251.6602039105537
 20
54.57953964515499
 30
0.0
  0
VERTEX
  5
BE2
  8
FISHER___PAYKEL
 62
     7
 10
251.6184225999424
 20
54.75556340775194
 30
0.0
  0
VERTEX
  5
BE3
  8
FISHER___PAYKEL
 62
     7
 10
251.5798594391521
 20
54.93321626987688
 30
0.0
  0
VERTEX
  5
BE4
  8
FISHER___PAYKEL
 62
     7
 10
251.5445360676888
 20
55.11243008323473
 30
0.0
  0
VERTEX
  5
BE5
  8
FISHER___PAYKEL
 62
     7
 10
251.5124741250584
 20
55.29313669953041
 30
0.0
  0
VERTEX
  5
BE6
  8
FISHER___PAYKEL
 62
     7
 10
251.4836952507671
 20
55.47526797046883
 30
0.0
  0
VERTEX
  5
BE7
  8
FISHER___PAYKEL
 62
     7
 10
251.4582210843209
 20
55.6587557477549
 30
0.0
  0
VERTEX
  5
BE8
  8
FISHER___PAYKEL
 62
     7
 10
251.4360732652257
 20
55.84353188309355
 30
0.0
  0
VERTEX
  5
BE9
  8
FISHER___PAYKEL
 62
     7
 10
251.4172734329876
 20
56.02952822818968
 30
0.0
  0
VERTEX
  5
BEA
  8
FISHER___PAYKEL
 62
     7
 10
251.4018432271126
 20
56.2166766347482
 30
0.0
  0
VERTEX
  5
BEB
  8
FISHER___PAYKEL
 62
     7
 10
251.3898042871068
 20
56.40490895447405
 30
0.0
  0
VERTEX
  5
BEC
  8
FISHER___PAYKEL
 62
     7
 10
251.3811782524762
 20
56.59415703907213
 30
0.0
  0
VERTEX
  5
BED
  8
FISHER___PAYKEL
 62
     7
 10
251.3759867627267
 20
56.78435274024736
 30
0.0
  0
SEQEND
  5
BEE
  8
FISHER___PAYKEL
 62
     7
  0
POLYLINE
  5
BEF
  8
FISHER___PAYKEL
 62
     7
 66
     1
 10
0.0
 20
0.0
 30
0.0
 70
     1
  0
VERTEX
  5
BF0
  8
FISHER___PAYKEL
 62
     7
 10
246.6819542351416
 20
63.38504735415017
 30
0.0
  0
VERTEX
  5
BF1
  8
FISHER___PAYKEL
 62
     7
 10
243.7962320129193
 20
62.41138068748342
 30
0.0
  0
VERTEX
  5
BF2
  8
FISHER___PAYKEL
 62
     7
 10
243.4963709018077
 20
63.2792140208162
 30
0.0
  0
VERTEX
  5
BF3
  8
FISHER___PAYKEL
 62
     7
 10
246.914787568475
 20
64.5280473541502
 30
0.0
  0
VERTEX
  5
BF4
  8
FISHER___PAYKEL
 62
     7
 10
247.7720375684751
 20
64.5280473541502
 30
0.0
  0
VERTEX
  5
BF5
  8
FISHER___PAYKEL
 62
     7
 10
247.7720375684751
 20
49.61260290970449
 30
0.0
  0
VERTEX
  5
BF6
  8
FISHER___PAYKEL
 62
     7
 10
246.6819542351416
 20
49.61260290970449
 30
0.0
  0
SEQEND
  5
BF7
  8
FISHER___PAYKEL
 62
     7
  0
POLYLINE
  5
BF8
  8
FISHER___PAYKEL
 62
     7
 66
     1
 10
0.0
 20
0.0
 30
0.0
 70
     1
  0
VERTEX
  5
BF9
  8
FISHER___PAYKEL
 62
     7
 10
121.7612264573629
 20
51.75078902081759
 30
0.0
  0
VERTEX
  5
BFA
  8
FISHER___PAYKEL
 62
     7
 10
122.5514486795857
 20
52.53395568748282
 30
0.0
 42
0.1962056430563231
  0
VERTEX
  5
BFB
  8
FISHER___PAYKEL
 62
     7
 10
127.0387820129192
 20
50.35378902081675
 30
0.0
 42
0.4297276378601091
  0
VERTEX
  5
BFC
  8
FISHER___PAYKEL
 62
     7
 10
131.0569209018079
 20
54.07559457637171
 30
0.0
  0
VERTEX
  5
BFD
  8
FISHER___PAYKEL
 62
     7
 10
131.0569209018079
 20
54.11792790970458
 30
0.0
  0
VERTEX
  5
BFE
  8
FISHER___PAYKEL
 62
     7
 10
131.0556894820327
 20
54.21373270465192
 30
0.0
  0
VERTEX
  5
BFF
  8
FISHER___PAYKEL
 62
     7
 10
131.0520098105332
 20
54.30864947240811
 30
0.0
  0
VERTEX
  5
C00
  8
FISHER___PAYKEL
 62
     7
 10
131.0459037690488
 20
54.40265834984447
 30
0.0
  0
VERTEX
  5
C01
  8
FISHER___PAYKEL
 62
     7
 10
131.0373932393187
 20
54.49573947383233
 30
0.0
  0
VERTEX
  5
C02
  8
FISHER___PAYKEL
 62
     7
 10
131.0265001030823
 20
54.58787298124305
 30
0.0
  0
VERTEX
  5
C03
  8
FISHER___PAYKEL
 62
     7
 10
131.0132462420789
 20
54.67903900894795
 30
0.0
  0
VERTEX
  5
C04
  8
FISHER___PAYKEL
 62
     7
 10
130.9976535380476
 20
54.76921769381839
 30
0.0
  0
VERTEX
  5
C05
  8
FISHER___PAYKEL
 62
     7
 10
130.979743872728
 20
54.85838917272569
 30
0.0
  0
VERTEX
  5
C06
  8
FISHER___PAYKEL
 62
     7
 10
130.9595391278592
 20
54.94653358254119
 30
0.0
  0
VERTEX
  5
C07
  8
FISHER___PAYKEL
 62
     7
 10
130.9370611851805
 20
55.03363106013623
 30
0.0
  0
VERTEX
  5
C08
  8
FISHER___PAYKEL
 62
     7
 10
130.9123319264313
 20
55.11966174238215
 30
0.0
  0
VERTEX
  5
C09
  8
FISHER___PAYKEL
 62
     7
 10
130.8853732333508
 20
55.20460576615029
 30
0.0
  0
VERTEX
  5
C0A
  8
FISHER___PAYKEL
 62
     7
 10
130.8562069876784
 20
55.28844326831198
 30
0.0
  0
VERTEX
  5
C0B
  8
FISHER___PAYKEL
 62
     7
 10
130.8248550711533
 20
55.37115438573856
 30
0.0
  0
VERTEX
  5
C0C
  8
FISHER___PAYKEL
 62
     7
 10
130.7913393655148
 20
55.45271925530137
 30
0.0
  0
VERTEX
  5
C0D
  8
FISHER___PAYKEL
 62
     7
 10
130.7556817525023
 20
55.53311801387174
 30
0.0
  0
VERTEX
  5
C0E
  8
FISHER___PAYKEL
 62
     7
 10
130.717904113855
 20
55.61233079832103
 30
0.0
  0
VERTEX
  5
C0F
  8
FISHER___PAYKEL
 62
     7
 10
130.6780283313122
 20
55.69033774552055
 30
0.0
  0
VERTEX
  5
C10
  8
FISHER___PAYKEL
 62
     7
 10
130.6360762866133
 20
55.76711899234166
 30
0.0
  0
VERTEX
  5
C11
  8
FISHER___PAYKEL
 62
     7
 10
130.5920698614975
 20
55.84265467565568
 30
0.0
  0
VERTEX
  5
C12
  8
FISHER___PAYKEL
 62
     7
 10
130.5460309377041
 20
55.91692493233397
 30
0.0
  0
VERTEX
  5
C13
  8
FISHER___PAYKEL
 62
     7
 10
130.4979813969725
 20
55.98990989924785
 30
0.0
  0
VERTEX
  5
C14
  8
FISHER___PAYKEL
 62
     7
 10
130.4479431210419
 20
56.06158971326866
 30
0.0
  0
VERTEX
  5
C15
  8
FISHER___PAYKEL
 62
     7
 10
130.3959379916516
 20
56.13194451126775
 30
0.0
  0
VERTEX
  5
C16
  8
FISHER___PAYKEL
 62
     7
 10
130.3419878905409
 20
56.20095443011644
 30
0.0
  0
VERTEX
  5
C17
  8
FISHER___PAYKEL
 62
     7
 10
130.2861146994492
 20
56.26859960668608
 30
0.0
  0
VERTEX
  5
C18
  8
FISHER___PAYKEL
 62
     7
 10
130.2283403001157
 20
56.33486017784799
 30
0.0
  0
VERTEX
  5
C19
  8
FISHER___PAYKEL
 62
     7
 10
130.1686865742797
 20
56.39971628047354
 30
0.0
  0
VERTEX
  5
C1A
  8
FISHER___PAYKEL
 62
     7
 10
130.1071754036805
 20
56.46314805143405
 30
0.0
  0
VERTEX
  5
C1B
  8
FISHER___PAYKEL
 62
     7
 10
130.0438286700574
 20
56.52513562760085
 30
0.0
  0
VERTEX
  5
C1C
  8
FISHER___PAYKEL
 62
     7
 10
129.9786682551497
 20
56.58565914584528
 30
0.0
  0
VERTEX
  5
C1D
  8
FISHER___PAYKEL
 62
     7
 10
129.9117160406968
 20
56.6446987430387
 30
0.0
  0
VERTEX
  5
C1E
  8
FISHER___PAYKEL
 62
     7
 10
129.8429939084378
 20
56.70223455605242
 30
0.0
  0
VERTEX
  5
C1F
  8
FISHER___PAYKEL
 62
     7
 10
129.7725237401122
 20
56.7582467217578
 30
0.0
  0
VERTEX
  5
C20
  8
FISHER___PAYKEL
 62
     7
 10
129.7003274174592
 20
56.81271537702617
 30
0.0
  0
VERTEX
  5
C21
  8
FISHER___PAYKEL
 62
     7
 10
129.626426822218
 20
56.86562065872885
 30
0.0
  0
VERTEX
  5
C22
  8
FISHER___PAYKEL
 62
     7
 10
129.5508438361281
 20
56.91694270373721
 30
0.0
  0
VERTEX
  5
C23
  8
FISHER___PAYKEL
 62
     7
 10
129.4736003409287
 20
56.96666164892255
 30
0.0
  0
VERTEX
  5
C24
  8
FISHER___PAYKEL
 62
     7
 10
129.3947182183591
 20
57.01475763115624
 30
0.0
  0
VERTEX
  5
C25
  8
FISHER___PAYKEL
 62
     7
 10
129.3142193501586
 20
57.06121078730962
 30
0.0
  0
VERTEX
  5
C26
  8
FISHER___PAYKEL
 62
     7
 10
129.2321256180665
 20
57.10600125425401
 30
0.0
  0
VERTEX
  5
C27
  8
FISHER___PAYKEL
 62
     7
 10
129.1484589038221
 20
57.14910916886074
 30
0.0
  0
VERTEX
  5
C28
  8
FISHER___PAYKEL
 62
     7
 10
129.0632410891647
 20
57.19051466800117
 30
0.0
  0
VERTEX
  5
C29
  8
FISHER___PAYKEL
 62
     7
 10
128.9764940558335
 20
57.23019788854663
 30
0.0
  0
VERTEX
  5
C2A
  8
FISHER___PAYKEL
 62
     7
 10
128.888239685568
 20
57.26813896736846
 30
0.0
  0
VERTEX
  5
C2B
  8
FISHER___PAYKEL
 62
     7
 10
128.7984998601074
 20
57.30431804133799
 30
0.0
  0
VERTEX
  5
C2C
  8
FISHER___PAYKEL
 62
     7
 10
128.7072964611909
 20
57.33871524732655
 30
0.0
  0
VERTEX
  5
C2D
  8
FISHER___PAYKEL
 62
     7
 10
128.614651370558
 20
57.37131072220551
 30
0.0
  0
VERTEX
  5
C2E
  8
FISHER___PAYKEL
 62
     7
 10
128.5205864699478
 20
57.40208460284617
 30
0.0
  0
VERTEX
  5
C2F
  8
FISHER___PAYKEL
 62
     7
 10
128.4251236410997
 20
57.4310170261199
 30
0.0
  0
VERTEX
  5
C30
  8
FISHER___PAYKEL
 62
     7
 10
128.328284765753
 20
57.45808812889803
 30
0.0
  0
VERTEX
  5
C31
  8
FISHER___PAYKEL
 62
     7
 10
128.230091725647
 20
57.48327804805188
 30
0.0
  0
VERTEX
  5
C32
  8
FISHER___PAYKEL
 62
     7
 10
128.1305664025209
 20
57.5065669204528
 30
0.0
  0
VERTEX
  5
C33
  8
FISHER___PAYKEL
 62
     7
 10
128.0297306781142
 20
57.52793488297213
 30
0.0
  0
VERTEX
  5
C34
  8
FISHER___PAYKEL
 62
     7
 10
127.927606434166
 20
57.54736207248121
 30
0.0
  0
VERTEX
  5
C35
  8
FISHER___PAYKEL
 62
     7
 10
127.8242155524157
 20
57.56482862585137
 30
0.0
  0
VERTEX
  5
C36
  8
FISHER___PAYKEL
 62
     7
 10
127.7195799146025
 20
57.58031467995395
 30
0.0
  0
VERTEX
  5
C37
  8
FISHER___PAYKEL
 62
     7
 10
127.6137214024659
 20
57.59380037166029
 30
0.0
  0
VERTEX
  5
C38
  8
FISHER___PAYKEL
 62
     7
 10
127.506661897745
 20
57.60526583784173
 30
0.0
  0
VERTEX
  5
C39
  8
FISHER___PAYKEL
 62
     7
 10
127.3984232821792
 20
57.6146912153696
 30
0.0
  0
VERTEX
  5
C3A
  8
FISHER___PAYKEL
 62
     7
 10
127.2890274375077
 20
57.62205664111525
 30
0.0
  0
VERTEX
  5
C3B
  8
FISHER___PAYKEL
 62
     7
 10
127.17849624547
 20
57.62734225195
 30
0.0
  0
VERTEX
  5
C3C
  8
FISHER___PAYKEL
 62
     7
 10
127.0668515878051
 20
57.63052818474522
 30
0.0
  0
VERTEX
  5
C3D
  8
FISHER___PAYKEL
 62
     7
 10
126.9541153462526
 20
57.63159457637221
 30
0.0
 42
0.1309067285984045
  0
VERTEX
  5
C3E
  8
FISHER___PAYKEL
 62
     7
 10
123.5780320129199
 20
56.70026124303922
 30
0.0
  0
VERTEX
  5
C3F
  8
FISHER___PAYKEL
 62
     7
 10
122.720782012919
 20
57.25059457637281
 30
0.0
  0
VERTEX
  5
C40
  8
FISHER___PAYKEL
 62
     7
 10
123.151170901808
 20
64.42256679859429
 30
0.0
  0
VERTEX
  5
C41
  8
FISHER___PAYKEL
 62
     7
 10
131.5472820129191
 20
64.42256679859429
 30
0.0
  0
VERTEX
  5
C42
  8
FISHER___PAYKEL
 62
     7
 10
131.5472820129191
 20
63.3642334652609
 30
0.0
  0
VERTEX
  5
C43
  8
FISHER___PAYKEL
 62
     7
 10
124.1318931240296
 20
63.3642334652609
 30
0.0
  0
VERTEX
  5
C44
  8
FISHER___PAYKEL
 62
     7
 10
123.7685320129196
 20
57.82209457637283
 30
0.0
 42
-0.1220676849233794
  0
VERTEX
  5
C45
  8
FISHER___PAYKEL
 62
     7
 10
127.0811153462521
 20
58.62642790970541
 30
0.0
  0
VERTEX
  5
C46
  8
FISHER___PAYKEL
 62
     7
 10
127.2159072102234
 20
58.62509846619767
 30
0.0
  0
VERTEX
  5
C47
  8
FISHER___PAYKEL
 62
     7
 10
127.3497219051578
 20
58.6211253694561
 30
0.0
  0
VERTEX
  5
C48
  8
FISHER___PAYKEL
 62
     7
 10
127.4825227730862
 20
58.61453147015308
 30
0.0
  0
VERTEX
  5
C49
  8
FISHER___PAYKEL
 62
     7
 10
127.6142731560394
 20
58.60533961896103
 30
0.0
  0
VERTEX
  5
C4A
  8
FISHER___PAYKEL
 62
     7
 10
127.7449363960483
 20
58.59357266655235
 30
0.0
  0
VERTEX
  5
C4B
  8
FISHER___PAYKEL
 62
     7
 10
127.8744758351437
 20
58.57925346359942
 30
0.0
  0
VERTEX
  5
C4C
  8
FISHER___PAYKEL
 62
     7
 10
128.0028548153565
 20
58.56240486077468
 30
0.0
  0
VERTEX
  5
C4D
  8
FISHER___PAYKEL
 62
     7
 10
128.1300366787174
 20
58.54304970875051
 30
0.0
  0
VERTEX
  5
C4E
  8
FISHER___PAYKEL
 62
     7
 10
128.2559847672574
 20
58.52121085819932
 30
0.0
  0
VERTEX
  5
C4F
  8
FISHER___PAYKEL
 62
     7
 10
128.3806624230072
 20
58.49691115979353
 30
0.0
  0
VERTEX
  5
C50
  8
FISHER___PAYKEL
 62
     7
 10
128.5040329879978
 20
58.4701734642055
 30
0.0
  0
VERTEX
  5
C51
  8
FISHER___PAYKEL
 62
     7
 10
128.62605980426
 20
58.44102062210769
 30
0.0
  0
VERTEX
  5
C52
  8
FISHER___PAYKEL
 62
     7
 10
128.7467062138246
 20
58.40947548417246
 30
0.0
  0
VERTEX
  5
C53
  8
FISHER___PAYKEL
 62
     7
 10
128.8659355587224
 20
58.37556090107223
 30
0.0
  0
VERTEX
  5
C54
  8
FISHER___PAYKEL
 62
     7
 10
128.9837111809842
 20
58.33929972347941
 30
0.0
  0
VERTEX
  5
C55
  8
FISHER___PAYKEL
 62
     7
 10
129.0999964226411
 20
58.30071480206641
 30
0.0
  0
VERTEX
  5
C56
  8
FISHER___PAYKEL
 62
     7
 10
129.2147546257237
 20
58.25982898750561
 30
0.0
  0
VERTEX
  5
C57
  8
FISHER___PAYKEL
 62
     7
 10
129.327949132263
 20
58.21666513046944
 30
0.0
  0
VERTEX
  5
C58
  8
FISHER___PAYKEL
 62
     7
 10
129.4395432842897
 20
58.17124608163027
 30
0.0
  0
VERTEX
  5
C59
  8
FISHER___PAYKEL
 62
     7
 10
129.5495004238347
 20
58.12359469166054
 30
0.0
  0
VERTEX
  5
C5A
  8
FISHER___PAYKEL
 62
     7
 10
129.6577838929289
 20
58.07373381123264
 30
0.0
  0
VERTEX
  5
C5B
  8
FISHER___PAYKEL
 62
     7
 10
129.7643570336031
 20
58.02168629101897
 30
0.0
  0
VERTEX
  5
C5C
  8
FISHER___PAYKEL
 62
     7
 10
129.8691831878881
 20
57.96747498169194
 30
0.0
  0
VERTEX
  5
C5D
  8
FISHER___PAYKEL
 62
     7
 10
129.9722256978148
 20
57.91112273392395
 30
0.0
  0
VERTEX
  5
C5E
  8
FISHER___PAYKEL
 62
     7
 10
130.073447905414
 20
57.85265239838741
 30
0.0
  0
VERTEX
  5
C5F
  8
FISHER___PAYKEL
 62
     7
 10
130.1728131527166
 20
57.79208682575472
 30
0.0
  0
VERTEX
  5
C60
  8
FISHER___PAYKEL
 62
     7
 10
130.2702847817534
 20
57.72944886669827
 30
0.0
  0
VERTEX
  5
C61
  8
FISHER___PAYKEL
 62
     7
 10
130.3658261345553
 20
57.66476137189049
 30
0.0
  0
VERTEX
  5
C62
  8
FISHER___PAYKEL
 62
     7
 10
130.4594005531531
 20
57.59804719200376
 30
0.0
  0
VERTEX
  5
C63
  8
FISHER___PAYKEL
 62
     7
 10
130.5509713795776
 20
57.5293291777105
 30
0.0
  0
VERTEX
  5
C64
  8
FISHER___PAYKEL
 62
     7
 10
130.6405019558597
 20
57.45863017968311
 30
0.0
  0
VERTEX
  5
C65
  8
FISHER___PAYKEL
 62
     7
 10
130.7279556240302
 20
57.385973048594
 30
0.0
  0
VERTEX
  5
C66
  8
FISHER___PAYKEL
 62
     7
 10
130.81329572612
 20
57.31138063511556
 30
0.0
  0
VERTEX
  5
C67
  8
FISHER___PAYKEL
 62
     7
 10
130.8964856041599
 20
57.2348757899202
 30
0.0
  0
VERTEX
  5
C68
  8
FISHER___PAYKEL
 62
     7
 10
130.9774886001807
 20
57.15648136368033
 30
0.0
  0
VERTEX
  5
C69
  8
FISHER___PAYKEL
 62
     7
 10
131.0562680562134
 20
57.07622020706835
 30
0.0
  0
VERTEX
  5
C6A
  8
FISHER___PAYKEL
 62
     7
 10
131.1327873142887
 20
56.99411517075666
 30
0.0
  0
VERTEX
  5
C6B
  8
FISHER___PAYKEL
 62
     7
 10
131.2070097164375
 20
56.91018910541766
 30
0.0
  0
VERTEX
  5
C6C
  8
FISHER___PAYKEL
 62
     7
 10
131.2788986046906
 20
56.82446486172378
 30
0.0
  0
VERTEX
  5
C6D
  8
FISHER___PAYKEL
 62
     7
 10
131.3484173210789
 20
56.73696529034739
 30
0.0
  0
VERTEX
  5
C6E
  8
FISHER___PAYKEL
 62
     7
 10
131.4155292076332
 20
56.64771324196092
 30
0.0
  0
VERTEX
  5
C6F
  8
FISHER___PAYKEL
 62
     7
 10
131.4801976063844
 20
56.55673156723675
 30
0.0
  0
VERTEX
  5
C70
  8
FISHER___PAYKEL
 62
     7
 10
131.5423858593632
 20
56.46404311684731
 30
0.0
  0
VERTEX
  5
C71
  8
FISHER___PAYKEL
 62
     7
 10
131.6020573086006
 20
56.36967074146499
 30
0.0
  0
VERTEX
  5
C72
  8
FISHER___PAYKEL
 62
     7
 10
131.6591752961274
 20
56.27363729176219
 30
0.0
  0
VERTEX
  5
C73
  8
FISHER___PAYKEL
 62
     7
 10
131.7137031639745
 20
56.17596561841133
 30
0.0
  0
VERTEX
  5
C74
  8
FISHER___PAYKEL
 62
     7
 10
131.7656042541726
 20
56.07667857208479
 30
0.0
  0
VERTEX
  5
C75
  8
FISHER___PAYKEL
 62
     7
 10
131.8148419087526
 20
55.97579900345499
 30
0.0
  0
VERTEX
  5
C76
  8
FISHER___PAYKEL
 62
     7
 10
131.8613794697454
 20
55.87334976319434
 30
0.0
  0
VERTEX
  5
C77
  8
FISHER___PAYKEL
 62
     7
 10
131.9051802791818
 20
55.76935370197523
 30
0.0
  0
VERTEX
  5
C78
  8
FISHER___PAYKEL
 62
     7
 10
131.9462076790926
 20
55.66383367047007
 30
0.0
  0
VERTEX
  5
C79
  8
FISHER___PAYKEL
 62
     7
 10
131.9844250115087
 20
55.55681251935127
 30
0.0
  0
VERTEX
  5
C7A
  8
FISHER___PAYKEL
 62
     7
 10
132.019795618461
 20
55.44831309929121
 30
0.0
  0
VERTEX
  5
C7B
  8
FISHER___PAYKEL
 62
     7
 10
132.0522828419802
 20
55.33835826096233
 30
0.0
  0
VERTEX
  5
C7C
  8
FISHER___PAYKEL
 62
     7
 10
132.0818500240973
 20
55.22697085503701
 30
0.0
  0
VERTEX
  5
C7D
  8
FISHER___PAYKEL
 62
     7
 10
132.108460506843
 20
55.11417373218766
 30
0.0
  0
VERTEX
  5
C7E
  8
FISHER___PAYKEL
 62
     7
 10
132.1320776322482
 20
54.99998974308669
 30
0.0
  0
VERTEX
  5
C7F
  8
FISHER___PAYKEL
 62
     7
 10
132.1526647423437
 20
54.88444173840649
 30
0.0
  0
VERTEX
  5
C80
  8
FISHER___PAYKEL
 62
     7
 10
132.1701851791605
 20
54.76755256881947
 30
0.0
  0
VERTEX
  5
C81
  8
FISHER___PAYKEL
 62
     7
 10
132.1846022847292
 20
54.64934508499803
 30
0.0
  0
VERTEX
  5
C82
  8
FISHER___PAYKEL
 62
     7
 10
132.1958794010809
 20
54.52984213761459
 30
0.0
  0
VERTEX
  5
C83
  8
FISHER___PAYKEL
 62
     7
 10
132.2039798702463
 20
54.40906657734154
 30
0.0
  0
VERTEX
  5
C84
  8
FISHER___PAYKEL
 62
     7
 10
132.2088670342562
 20
54.28704125485129
 30
0.0
  0
VERTEX
  5
C85
  8
FISHER___PAYKEL
 62
     7
 10
132.2105042351416
 20
54.16378902081624
 30
0.0
  0
VERTEX
  5
C86
  8
FISHER___PAYKEL
 62
     7
 10
132.2105042351416
 20
54.11792790970458
 30
0.0
  0
VERTEX
  5
C87
  8
FISHER___PAYKEL
 62
     7
 10
132.2088972326713
 20
53.98773092838054
 30
0.0
  0
VERTEX
  5
C88
  8
FISHER___PAYKEL
 62
     7
 10
132.2040974341297
 20
53.85876424986716
 30
0.0
  0
VERTEX
  5
C89
  8
FISHER___PAYKEL
 62
     7
 10
132.1961366528204
 20
53.73105411610273
 30
0.0
  0
VERTEX
  5
C8A
  8
FISHER___PAYKEL
 62
     7
 10
132.1850467020469
 20
53.60462676902552
 30
0.0
  0
VERTEX
  5
C8B
  8
FISHER___PAYKEL
 62
     7
 10
132.170859395113
 20
53.4795084505738
 30
0.0
  0
VERTEX
  5
C8C
  8
FISHER___PAYKEL
 62
     7
 10
132.1536065453222
 20
53.35572540268583
 30
0.0
  0
VERTEX
  5
C8D
  8
FISHER___PAYKEL
 62
     7
 10
132.1333199659782
 20
53.2333038672999
 30
0.0
  0
VERTEX
  5
C8E
  8
FISHER___PAYKEL
 62
     7
 10
132.1100314703846
 20
53.11227008635426
 30
0.0
  0
VERTEX
  5
C8F
  8
FISHER___PAYKEL
 62
     7
 10
132.0837728718451
 20
52.99265030178722
 30
0.0
  0
VERTEX
  5
C90
  8
FISHER___PAYKEL
 62
     7
 10
132.0545759836632
 20
52.87447075553702
 30
0.0
  0
VERTEX
  5
C91
  8
FISHER___PAYKEL
 62
     7
 10
132.0224726191425
 20
52.75775768954195
 30
0.0
  0
VERTEX
  5
C92
  8
FISHER___PAYKEL
 62
     7
 10
131.9874945915869
 20
52.64253734574027
 30
0.0
  0
VERTEX
  5
C93
  8
FISHER___PAYKEL
 62
     7
 10
131.9496737142998
 20
52.52883596607027
 30
0.0
  0
VERTEX
  5
C94
  8
FISHER___PAYKEL
 62
     7
 10
131.9090418005848
 20
52.41667979247022
 30
0.0
  0
VERTEX
  5
C95
  8
FISHER___PAYKEL
 62
     7
 10
131.8656306637457
 20
52.30609506687837
 30
0.0
  0
VERTEX
  5
C96
  8
FISHER___PAYKEL
 62
     7
 10
131.819472117086
 20
52.19710803123303
 30
0.0
  0
VERTEX
  5
C97
  8
FISHER___PAYKEL
 62
     7
 10
131.7705979739094
 20
52.08974492747245
 30
0.0
  0
VERTEX
  5
C98
  8
FISHER___PAYKEL
 62
     7
 10
131.7190400475195
 20
51.98403199753491
 30
0.0
  0
VERTEX
  5
C99
  8
FISHER___PAYKEL
 62
     7
 10
131.6648301512199
 20
51.87999548335867
 30
0.0
  0
VERTEX
  5
C9A
  8
FISHER___PAYKEL
 62
     7
 10
131.6080000983143
 20
51.77766162688201
 30
0.0
  0
VERTEX
  5
C9B
  8
FISHER___PAYKEL
 62
     7
 10
131.5485817021063
 20
51.67705667004322
 30
0.0
  0
VERTEX
  5
C9C
  8
FISHER___PAYKEL
 62
     7
 10
131.4866067758994
 20
51.57820685478056
 30
0.0
  0
VERTEX
  5
C9D
  8
FISHER___PAYKEL
 62
     7
 10
131.4221071329975
 20
51.4811384230323
 30
0.0
  0
VERTEX
  5
C9E
  8
FISHER___PAYKEL
 62
     7
 10
131.355114586704
 20
51.38587761673671
 30
0.0
  0
VERTEX
  5
C9F
  8
FISHER___PAYKEL
 62
     7
 10
131.2856609503227
 20
51.29245067783208
 30
0.0
  0
VERTEX
  5
CA0
  8
FISHER___PAYKEL
 62
     7
 10
131.213778037157
 20
51.20088384825667
 30
0.0
  0
VERTEX
  5
CA1
  8
FISHER___PAYKEL
 62
     7
 10
131.1394976605108
 20
51.11120336994875
 30
0.0
  0
VERTEX
  5
CA2
  8
FISHER___PAYKEL
 62
     7
 10
131.0628516336875
 20
51.02343548484661
 30
0.0
  0
VERTEX
  5
CA3
  8
FISHER___PAYKEL
 62
     7
 10
130.9838717699909
 20
50.9376064348885
 30
0.0
  0
VERTEX
  5
CA4
  8
FISHER___PAYKEL
 62
     7
 10
130.9025898827245
 20
50.85374246201271
 30
0.0
  0
VERTEX
  5
CA5
  8
FISHER___PAYKEL
 62
     7
 10
130.819037785192
 20
50.77186980815751
 30
0.0
  0
VERTEX
  5
CA6
  8
FISHER___PAYKEL
 62
     7
 10
130.733247290697
 20
50.69201471526117
 30
0.0
  0
VERTEX
  5
CA7
  8
FISHER___PAYKEL
 62
     7
 10
130.6452502125432
 20
50.61420342526196
 30
0.0
  0
VERTEX
  5
CA8
  8
FISHER___PAYKEL
 62
     7
 10
130.5550783640342
 20
50.53846218009816
 30
0.0
  0
VERTEX
  5
CA9
  8
FISHER___PAYKEL
 62
     7
 10
130.4627635584735
 20
50.46481722170805
 30
0.0
  0
VERTEX
  5
CAA
  8
FISHER___PAYKEL
 62
     7
 10
130.3683376091649
 20
50.39329479202988
 30
0.0
  0
VERTEX
  5
CAB
  8
FISHER___PAYKEL
 62
     7
 10
130.2718323294119
 20
50.32392113300195
 30
0.0
  0
VERTEX
  5
CAC
  8
FISHER___PAYKEL
 62
     7
 10
130.1732795325183
 20
50.25672248656251
 30
0.0
  0
VERTEX
  5
CAD
  8
FISHER___PAYKEL
 62
     7
 10
130.0727110317875
 20
50.19172509464985
 30
0.0
  0
VERTEX
  5
CAE
  8
FISHER___PAYKEL
 62
     7
 10
129.9701586405233
 20
50.12895519920223
 30
0.0
  0
VERTEX
  5
CAF
  8
FISHER___PAYKEL
 62
     7
 10
129.8656541720293
 20
50.06843904215793
 30
0.0
  0
VERTEX
  5
CB0
  8
FISHER___PAYKEL
 62
     7
 10
129.7592294396092
 20
50.01020286545523
 30
0.0
  0
VERTEX
  5
CB1
  8
FISHER___PAYKEL
 62
     7
 10
129.6509162565664
 20
49.95427291103239
 30
0.0
  0
VERTEX
  5
CB2
  8
FISHER___PAYKEL
 62
     7
 10
129.5407464362047
 20
49.9006754208277
 30
0.0
  0
VERTEX
  5
CB3
  8
FISHER___PAYKEL
 62
     7
 10
129.4287517918277
 20
49.84943663677942
 30
0.0
  0
VERTEX
  5
CB4
  8
FISHER___PAYKEL
 62
     7
 10
129.3149641367391
 20
49.80058280082581
 30
0.0
  0
VERTEX
  5
CB5
  8
FISHER___PAYKEL
 62
     7
 10
129.1994152842424
 20
49.75414015490516
 30
0.0
  0
VERTEX
  5
CB6
  8
FISHER___PAYKEL
 62
     7
 10
129.0821370476413
 20
49.71013494095575
 30
0.0
  0
VERTEX
  5
CB7
  8
FISHER___PAYKEL
 62
     7
 10
128.9631612402394
 20
49.66859340091585
 30
0.0
  0
VERTEX
  5
CB8
  8
FISHER___PAYKEL
 62
     7
 10
128.8425196753404
 20
49.62954177672372
 30
0.0
  0
VERTEX
  5
CB9
  8
FISHER___PAYKEL
 62
     7
 10
128.7202441662478
 20
49.59300631031764
 30
0.0
  0
VERTEX
  5
CBA
  8
FISHER___PAYKEL
 62
     7
 10
128.5963665262654
 20
49.55901324363589
 30
0.0
  0
VERTEX
  5
CBB
  8
FISHER___PAYKEL
 62
     7
 10
128.4709185686966
 20
49.52758881861673
 30
0.0
  0
VERTEX
  5
CBC
  8
FISHER___PAYKEL
 62
     7
 10
128.3439321068453
 20
49.49875927719845
 30
0.0
  0
VERTEX
  5
CBD
  8
FISHER___PAYKEL
 62
     7
 10
128.2154389540149
 20
49.47255086131931
 30
0.0
  0
VERTEX
  5
CBE
  8
FISHER___PAYKEL
 62
     7
 10
128.0854709235092
 20
49.44898981291758
 30
0.0
  0
VERTEX
  5
CBF
  8
FISHER___PAYKEL
 62
     7
 10
127.9540598286317
 20
49.42810237393154
 30
0.0
  0
VERTEX
  5
CC0
  8
FISHER___PAYKEL
 62
     7
 10
127.8212374826861
 20
49.40991478629947
 30
0.0
  0
VERTEX
  5
CC1
  8
FISHER___PAYKEL
 62
     7
 10
127.6870356989761
 20
49.39445329195964
 30
0.0
  0
VERTEX
  5
CC2
  8
FISHER___PAYKEL
 62
     7
 10
127.5514862908051
 20
49.38174413285031
 30
0.0
  0
VERTEX
  5
CC3
  8
FISHER___PAYKEL
 62
     7
 10
127.414621071477
 20
49.37181355090976
 30
0.0
  0
VERTEX
  5
CC4
  8
FISHER___PAYKEL
 62
     7
 10
127.2764718542952
 20
49.36468778807627
 30
0.0
  0
VERTEX
  5
CC5
  8
FISHER___PAYKEL
 62
     7
 10
127.1370704525635
 20
49.36039308628812
 30
0.0
  0
VERTEX
  5
CC6
  8
FISHER___PAYKEL
 62
     7
 10
126.9964486795855
 20
49.35895568748356
 30
0.0
 42
-0.1947398226899799
  0
SEQEND
  5
CC7
  8
FISHER___PAYKEL
 62
     7
  0
ENDSEC
  0
EOF
